Song name
# A B C D E F G H I J K L M N O P Q R S T U V W X Y Z

Snow Patrol - 15 Minutes Old tab

e|----------------------------------------------------------------------------|
B|----------------------------------------------------------------------------|
G|----------------------------------------------------------------------------|
D|--------0---------0---------------------------------------------------------|
A|---3/5------55-4-----4-5----------------------------------------------------|
E|----------------------------------------------------------------------------|
   intro^
e|----------------------------------------------------------------------------|
B|----------------------------------------------------------------------------|
G|----------------------------------------------------------------------------|
D|---0-----0-----0------------------------------------------------------------|
A|------4-----4------4--------------------------------------------------------|
E|----------------------------------------------------------------------------|
    bridge^
e|---------------------------------------------------------------------------|
B|---------------------------------------------------------------------------|
G|---------------------------------------------------------------------------|
D|------0----0------0----0-----0----0-------0----0---------------------------|
A|---5-----5------4----4-----2----2------4----4------------------------------|
E|---------------------------------------------------------------------------|
    chorus^
Tap to rate this tab
# A B C D E F G H I J K L M N O P Q R S T U V W X Y Z