Song name
# A B C D E F G H I J K L M N O P Q R S T U V W X Y Z

Snow Patrol - Fifteen Minutes Old tab

Fifteen Minutes Old
by Snow Patrol (off the album "Songs For Polar Bears", 1999)

Standard tuning.

This sounds right to me, sweet song this :). There's only one guitar in it.
Finger pick it all. Enjoy!



_____________________________________________________________________________
	INTRO [0:00]
_____________________________________________________________________________


Four times.

e|-----------------------|
B|-----------------------|
G|-----------------------|
D|-2/4-----4------0----0-| 
A|------5----5--4---4--5-|
E|-----------------------|

Pick the double D note at the end with your thumb and index finger.

_____________________________________________________________________________
	VERSE [0:27]
_____________________________________________________________________________


Play the intro riff, 6 times.


_____________________________________________________________________________
	CHORUS [1:09]
_____________________________________________________________________________


e|----------------|-----------------|----------------|
B|----------------|-----------------|----------------|
G|----------------|-----------------|----------------|
D|---0---0---0----|---0---0---0---0-|---0----------0-|
A|-----5---5---5\-|-2---2---2---2---|----------------|
E|----------------|-----------------|-3---3-/-5------|
                    Can I have a picture...


e|-----------------------|
B|-----------------------|
G|-----------------------|
D|-2/4-----4------0----0-|
A|------5----5--4---4--5-|
E|-----------------------|


e|----------------|-----------------|----------------|
B|----------------|-----------------|----------------|
G|----------------|-----------------|----------------|
D|-------------0--|---0---0---0---0-|---0----------0-|
A|----------------|-2---2---2---2---|----------------|
E|----------------|-----------------|-3---3-/-5------|
                     Keep it with me always...


_____________________________________________________________________________
	VERSE [1:34]
_____________________________________________________________________________


Play the intro riff, 8 times.


_____________________________________________________________________________
	CHORUS [2:28]
_____________________________________________________________________________


e|----------------|-----------------|----------------|
B|----------------|-----------------|----------------|
G|----------------|-----------------|----------------|
D|-------0---0----|---0---0---0---0-|---0----------0-|
A|---------5---5\-|-2---2---2---2---|----------------|
E|----------------|-----------------|-3---3-/-5------|
                    Can I have a picture...


e|-----------------------|
B|-----------------------|
G|-----------------------|
D|-2/4-----4------0----0-|
A|------5----5--4---4--5-|
E|-----------------------|


e|----------------|-----------------|----------------|
B|----------------|-----------------|----------------|
G|----------------|-----------------|----------------|
D|-------0---0----|---0---0---0---0-|---0----------0-|
A|---------5---5\-|-2---2---2---2---|----------------|
E|----------------|-----------------|-3---3-/-5------|
                     Keep it with me always...


_____________________________________________________________________________
	OUTRO [2:50]
_____________________________________________________________________________


Play the intro riff, 2 times.

End! Beautifully simple.

_____________________________________________________________________________
	LYRICS
_____________________________________________________________________________

VERSE

I'm good for inspiration, aren't I?
You will find
Close the door and I'll go anywhere
You take me to
From this bed onto so
Much more
Care for you I will

CHORUS

Can I have a picture of you tonight?
Keep it with me always in my mind

VERSE

Touch me 'cos I can't move
I can barely breathe
Speechless, breathless, I can't tell you
If I'm here or not
Running both legs tied together
Arms in the air
Care for you, I will

CHORUS

Can I have a picture of you tonight?
Keep it with me always in my mind

OUTRO

Can't feel nothing(?)
Can't feel it

_____________________________________________________________________________

Key:
/ 	- Slide up
\ 	- Slide down
b 	- Bend
r 	- Return
x 	- Mute
PM 	- Palm mute
~ 	- Let ring/vibrato
h	- Hammer-on
p	- Pull-off
<>	- Harmonic
#n#	- Tremelo pick
-\	- Parts played together 

-/
Tap to rate this tab
# A B C D E F G H I J K L M N O P Q R S T U V W X Y Z