Song name
# A B C D E F G H I J K L M N O P Q R S T U V W X Y Z

Snow Patrol - Youre All I Have tab

100% correct from the book

Intro


---------16----------16----------16----------16----------16----------16-----------16----------16----|
------14----14----14----14----14----14----14----14----14----14----14----14-----14----14----14----14-|
---16----------16----------13----------13----------16----------16-----------------------------------|
----------------------------------------------------------------------------14----------14----------|
----------------------------------------------------------------------------------------------------|
----------------------------------------------------------------------------------------------------|


Verse

Intro play 4 times
Verse Play 8 times
|-------------------------------------------------------------------|
|.-----------------------------------------------------------------.|
|-------------------------------------------------------------------|
|---9---9---9---9---9---9---9---9---9---9---9---9---9---9---9---9---|
|.--7---7---7---7---7---7---7---7---7---7---7---7---7---7---7---7--.|
|---0---0---0---0---0---0---0---0---5---5---5---5---5---5---5---5---|


Verse/Bridge melody

|-------------------------------------------------------------------------|
|------------------------------------------------------------------------.|
|---11----------13-----------6----------10(12)----------------------------|
|-------------------------------------------------11--(13)--------(11)----|
|----9----------11-----------4-------------------------------------------.|
|-------------------------------------------------------------------------|


Pre-Chorus


|--------------------------------------------------|
|.-------------------------------------------------|
|--------------------------------------------------|
|-11-11-11-11-11-11-11-11-11-11-11-11-11-11-11-11--|
|.-9--9--9--9--9--9--9--9--9--9--9--9--9--9--9--9--|
|--7--7--7--7--7--7--7--7--7--7--7--7--7--7--7--7--|


-----------------------------------|
----------------------------------.|
-----------------------------------|
-9-9-9-9-9-9-9-9-9-9-9-9-9-9-9-9---|
-7-7-7-7-7-7-7-7-7-7-7-7-7-7-7-7--.|
-5-5-5-5-5-5-5-5-5-5-5-5-5-5-5-5---|


Chorus


Play 4 times
|------------------------------------|
|.-----------------------------------|
|------------------------------------|
|--9-9-9-9-9-9-9-9-9-9-9-9-9-9-9-9---|
|.-7-7-7-7-7-7-7-7-7-7-7-7-7-7-7-7---|
|--0-0-0-0-0-0-0-0-0-0-0-0-0-0-0-0---|

-----------------------------------|
----------------------------------.|
-----------------------------------|
-9-9-9-9-9-9-9-9-9-9-9-9-9-9-9-9---|
-7-7-7-7-7-7-7-7-7-7-7-7-7-7-7-7--.|
-5-5-5-5-5-5-5-5-5-5-5-5-5-5-5-5---|


Verse 2 Arpeggio

This is at 1.56 into the song
|----------4--------------------------------------------4-------------------|
|.------5------------7------5---------------7-------------------7----------.|
|----4------------------------------6----------------6----------------------|
|---------------------------------------------------------------------------|
|.-------------------------------------------------------------------------.|
|---------------------------------------------------------------------------|


Verse 2


------------------------------------------------------------------------|
------------------------------------------------------------------------|
--4----4--4--4--4--4--6---6----6--6--6--6--6--6--8----8---8--8--8---9---|
------------------------------------------------------------------------|
--2----2--2--2--2--2--4---4----4--4--4--4--4--4--6----6---6--6--6---7---|
------------------------------------------------------------------------|


-----------------------------|-----------------------------|----------------|
-----------------------------|.---5---7---(9)---7------5--.|-7--------------|
--9---9--9--9---9-----9---9--|-----------------------------|----------------|
-----------------------------|-----------------------------|------------7---|
--7---7--7--7---7-----7---7--|.---------------------------.|----------------|
-----------------------------|-----------------------------|----------------|

The end

please rate
Tap to rate this tab
# A B C D E F G H I J K L M N O P Q R S T U V W X Y Z