Song name
# A B C D E F G H I J K L M N O P Q R S T U V W X Y Z

Snow Patrol - Absolute Gravity tab

Guitar 1 comes in:

   Em            A         Em            A
e--------0-----------------------0----------------|
b--------0-----------------------0----------------|
g--------0-----------------------0----------------| x2
d--------2-----------------------2----------------|
a--------2-------4--5--4---------2-------4--5--4--|
e--0-------------5--5--5---0-------------5--5--5--|

Guitar 2 comes in:

   E5          A5          E5          A5
e-------------------------------------------------|
b-------------------------------------------------|
g-------------------------------------------------| x2
d-------------------------------------------------|
a--2--2--------7--7--------2--2--------7--7-------|
e--0--0--------5--5--------0--0--------5--5-------|

Verse 1:

e-------------------------------------------------|
b-------------------------------------------------|
g-------------------------------------------------|
d--4--4--3--3--2--2--1--1--0----------------------|
a--5--5--4--4--3--3--2--2--1----------------------|
e-------------------------------------------------|


   E5    D5    A5
e-------------------------------------------------|
b-------------------------------------------------|
g-------------------------------------------------|
d--9--9--7--7-------------------------------------|
a--7--7--5--5--7----------------------------------|
e--------------5----------------------------------|

Verse 2:

e-------------------------------------------------|
b-------------------------------------------------|
g-------------------------------------------------|
d--4--4--3--3--2--2--1--1--0----------------------|
a--5--5--4--4--3--3--2--2--1----------------------|
e-------------------------------------------------|

   E5    D5    A5
e-------------------------------------------------|
b-------------------------------------------------|
g-------------------------------------------------|
d--9--9--7--7-------------------------------------|
a--7--7--5--5--7----------------------------------|
e--------------5----------------------------------|

Outro:

   E5
e-------------------------------------------------------------------|
b-------------------------------------------------------------------|
g--4-4-4-4-4-4-4-4-6-6-6-6-6-6-6-6-4-4-4-4-4-4-4-4-6-6-6-6-6-6-6-6--| x4
d-------------------------------------------------------------------|
a--2-2-2-2-2-2-2-2-4-4-4-4-4-4-4-4-2-2-2-2-2-2-2-2-4-4-4-4-4-4-4-4--|
e--0-0-0-0-0-0-0-0-0-0-0-0-0-0-0-0-0-0-0-0-0-0-0-0-0-0-0-0-0-0-0-0--|

   E5
e-------------------------------------------------------------------|
b-------------------------------------------------------------------|
g-------------------------------------------------------------------|
d--2----------------------------------------------------------------|
a--2----------------------------------------------------------------|
e--0----------------------------------------------------------------|
Tap to rate this tab
 
# A B C D E F G H I J K L M N O P Q R S T U V W X Y Z