Guitaretab - guitar tabs
Song name
# A B C D E F G H I J K L M N O P Q R S T U V W X Y Z

Snow Patrol - Signal Fire tab

Songs pretty easy.
I looked at another tab for this but i thought it was too high
and hard to play so i think this is easier.

Intro/Verse
Guitar 1: Strum chords in lots of four
e|--------------------------------------------|
B|-10------10------10-------------------------|
G|--9-------9-------9------7------------------| 
D|--7-------7-------7------7------------------|
A|--0-------9-------7------5------------------|
E|--------------------------------------------|

Guitar 2: Play every time Guitar 1 repeats, make it really ring out maybe incorporate some echo or something.
e|--------------------------------------------|
B|--------------------------------------------|
G|----------9---------------------------------| 
D|-----7--------------------------------------|
A|--------------------------------------------|
E|-5------------------------------------------|



Chorus: Some crazy fast strumming and a little bit of distortion
e|------------------------------------------------------------------------|
B|------------------------------------------------------------------------|
G|------------------------------------------------------------------------|
D|-7-7-7-7-7-7-7-7-7-7-7-7---14-14-14-14-14-14---12-12-12-12-12-12--------|
A|-7-7-7-7-7-7-7-7-7-7-7-7---14-14-14-14-14-14---12-12-12-12-12-12--------|
E|-5-5-5-5-5-5-5-5-5-5-5-5---12-12-12-12-12-12---10-10-10-10-10-10--------|

e|------------------------------------------------------------------------|
B|------------------------------------------------------------------------|
G|------------------------------------------------------------------------|
D|-14-14-14------16-16-16-----14-14-14-14-14-14---18-18-18-18-18-18-18-18-|
A|-14-14-14------16-16-16-----14-14-14-14-14-14---18-18-18-18-18-18-18-18-|
E|-12-12-12------14-14-14-----12-12-12-12-12-12---16-16-16-16-16-16-16-16-|
[ Tab from: http://www.guitaretab.com/s/snow-patrol/87882.html ]
e|------------------------------------------------------------------------|
B|------------------------------------------------------------------------|
G|------------------------------------------------------------------------|
D|-19-19-19-19-19-19-19-19------------------------------------------------|
A|-19-19-19-19-19-19-19-19------------------------------------------------|
E|-17-17-17-17-17-17-17-17------------------------------------------------| 


After 8 bars of piano start from start.

Then chorus again.

Solo: repeat twice
e|-----------------------------------------------------|
B|-----------------------------------------------------|
G|-----------------------------------------------------|
D|-----------------------------------------------------|
A|-----------------------------------------------------|
E|--5/12--9--7--9--10--9--4--5-------------------------|

Chorus again
Outro


The perfect words never crossed my mind,
'cause there was nothing in there but you,
I felt every ounce of me screaming out,
But the sound was trapped deep in me,
All I wanted just sped right past me,
While I was rooted fast to the earth,
I could be stuck here for a thousand years,
Without your arms to drag me out,

There you are standing right in front of me
All this fear falls away to leave me naked,
Hold me close cause I need you to guide me to safety

No I won't wait forever


In the confusion and the aftermath,
You are my signal fire,
The only resolution and the only joy,
Is the faint spark of forgiveness in your eyes,

There you are standing right in front of me
All this fear falls away to leave me naked,
Hold me close cause I need you to guide me to safety,

There you are standing right in front of me
All this fear falls away to leave me naked,
Hold me close cause I need you to guide me to safety,

No I won't wait forever
Related for Signal Fire tab
×
Signal Fire