Song name
# A B C D E F G H I J K L M N O P Q R S T U V W X Y Z

Snow Patrol - Workwear Shop tab

Workwear Shop
by Snow Patrol (from the album When It's All Over We Still Have To Clear Up Bonus
2006)


This is the first tab of this song on UG, one of their best off this album, it's not
released to the public though and I can't find any lyrics so I'll go by what I can hear
it's not hard to work them out). I'm tabbing the chords, electric guitar and bass for 
I'll put the chords with the lyrics and the guitar parts seperately. Right.. here it is
:).


_____________________________________________________________________________
INTRO [0:00]
_____________________________________________________________________________

Electric Guitar

e|-----------------------------|
B|-----8------8------8------8--|
G|-7h9-9--7h9-9--7h9-9--7h9-9--|
D|-----------------------------|   x4
A|-----------------------------|
E|-----------------------------|

Every time this electric guitar riff is played, a chord is played at the end:
D, Am, D, Am

Bass[0:04] - starts after the first guitar riff

G|----------------------------------------------------------------|
D|----------------------------------------------------------------|
A|---------------------2------------------------------2-----------|
E|-0--0--0----0--0--3-----5--5-0-5--5-0-5--5-0-5-5--5---5-3-0-----|

G|----------------------------------------------------------|
D|----------------------------------------------------------|
A|---------------------2------------------------------2-----|
E|-0--0--0----0--0--3-----5--5-0-5--5-0-5--5-0-5-5--5-------|


_____________________________________________________________________________
VERSE [0:36]
_____________________________________________________________________________


 [D]
     I don't want to
 [Am]
     Be alone

 [D]
     I don't want to
 [Am]
     Be alone

 [D]
     I don't want to
 [Am]
     Be alone

 [D]
     Cos I don't want to
 [Am]
  Die here alone


Bass

G|-----------------|
D|----------2--0---|
A|-------3---------|
E|-5--5------------|

This is played over "Be alone", with the last note playing at every D chord strike.
Over "Die", this is played.

G|----|
D|----|
A|-3--|
E|----|

_____________________________________________________________________________
BREAK [1:09]
_____________________________________________________________________________

Electric Guitar

e|-----------------------------|
B|-----8------8------8------8--|
G|-7h9-9--7h9-9--7h9-9--7h9-9--|
D|-----------------------------|   x4
A|-----------------------------|
E|-----------------------------|

Every time this electric guitar riff is played, a chord is played at the end:
D, Am, D, Am


Bass

G|----------------|
D|-2----------2---|
A|---5-3----------| played over the first guitar riff
E|-------0--------|

G|-------------------------------------------------|
D|---------------------------------------------2---|
A|----------2-----------------------2--------------|
E|-0--0--3-----5---0-5--0-5--0-5--5---5-3-0--------|

G|--------------------------------------|
D|--------------------------------------|
A|----------2-----------------------2---|
E|-0--0--3-----5---0-5--0-5--0-5--5-----|


_____________________________________________________________________________
VERSE [1:47]
_____________________________________________________________________________

As the first verse.. then this lovely song ends! Oh noes :(.
_____________________________________________________________________________

Lyrics:

I don't want to
Be alone
I don't want to
Be alone
I don't want to
Be alone
Cos I don't want to
Die here alone

I don't want to
Be alone
I don't want to
Be alone
I don't want to
Be alone
Cos I don't want to
Die here alone

_____________________________________________________________________________

Key:
/ 	- Slide up
\ 	- Slide down
b 	- Bend
r 	- Return
x 	- Mute
PM 	- Palm mute
~ 	- Let ring/vibrato
h	- Hammer-on
p	- Pull-off
<>	- Harmonic
Tap to rate this tab
# A B C D E F G H I J K L M N O P Q R S T U V W X Y Z