Song name
# A B C D E F G H I J K L M N O P Q R S T U V W X Y Z

Snow Whites Poison Bite - Shes A Trendy Designer On Her Wrist tab

this is a great band From finland. im really into these guys and love the guitar work, 
such young kids its amazing. and i saw noone has bothed to tab these guys, Well i thought i would do the work then.

i havent worked all the lead out sorry :P. but i am working on it now, ive finiished 
parts.

the 7h8 on the intro, im not sure on :P. ill work on it.

http://www.youtube.com/watch?v=Sq336lfj4jk
thats the song.

tuning - Drop C

Guitar one[Allan]
guitar two[Tuomo]

intro[Both guitars]
D|------------------------------------------------------------------------|
A|------------------------------------------------------------------------|
F|------------------------------------------------------------------------|
C|--0~~~~~~~~~-777777-----------------------------------------------------|
G|--0~~~~~~~~~-777777-7h8--0000-000-000-00--000---0-0-0---0-0-0--0-0-0-0--|
C|--0~~~~~~~~~-777777------0000-000-000-000-000---0-0-0---0-0-0--0-0-0-0--|
PM             ******


Intro2[allan]
D|--------------------------------------------------------------|
A|--------------------------------------------------------------|
F|------------------5-------------------------------------------|
C|----7-------------5---------------3-------------5-------------|
G|----7---7--7h8----3---7---7h8-----3----7---7h8--5----7---7h8--|
C|----7-0--0-----0----0---0------0--3--0---0------5--0---0------|
PM      *  *     *    *   *      *     *   *         *   *

intro2[tuomo]
D|-----------------------------------|
A|-----------------------------------|
F|-------------5---------------------|
C|---7---------5--------3-------5----|
G|---7---------3--------3-------5----|
C|---7------------------3-------5----|

verse
D|-----------------------------------------------------|
A|-----------------------------------------------------|
F|-----------------------------------------------------|
C|--222222222--3333333333--555555555--5555555555--5~~--|
G|--000000000--3333333333--333333333--5555555555--5~~--|
C|-------------3333333333-------------5555555555--5~~--|
PM   ********   *********   ********   *********

verse2[guitar one]
D|-----------------------------------------------------|
A|-----------------------------------------------------|
F|-----------------------------------------------------|
C|--222222222--3333333333--555555555--5555555555-------|
G|--000000000--3333333333--333333333--5555555555-------|
C|-------------3333333333-------------5555555555-------|
PM                          ********   *********

verse2[guitar two]
D|------------------------------------------------------------------------|
A|----------8888--------------88888---------------------------------------|
F|--4445555------5555-44445555-----5555555--------------------------------|
C|--------------------------------------------555555555--5555555555-------|
G|--------------------------------------------333333333--5555555555-------|
C|-------------------------------------------------------5555555555-------|
Pm                                             ********   *********

Bridge
D|---------------------------------------------------------------------------------------|
A|---------------------------------------------------------------------------------------|
F|------------------------55------55-----------------------------------------------------|
C|--77-----77-------------55------55------------33-----33------------55-----55-----------|
G|--77-7h8-77-7h87h8------33-7h8--33-7h87h87----33-7h8-33-7h87h87----55-7h8-55-7h87h8----|
C|--77-----77-----------------------------------33-----33------------55-----55-----------|
PM  **     **             **      **            **     **            **    **

D-------------------------------------------------------------------------|
A-------------------------------------------------------------------------|
F--------------------55----55---------------------------------------------|
C--77--2h3-77-2h32h3-55-23-55-2h32h3-33-2h3-33-2h32h3---55-2h3-55-2h32h3--|
G--77------77--------33----33--------33-----33----------55-----55---------|
C--77------77------------------------33-----33----------55-----55---------|

D-------------------------------------------------------------------------|
A-------------------------------------------------------------------------|
F--------------------55----55---------------------------------------------|
C--77--2h3-77-2h32h3-55-23-55-2h32h3-33-2h3-33-2h32h3---55-2h3-55-2h32h3--|
G--77------77--------33----33--------33-----33----------55-----55---------|
C--77------77------------------------33-----33----------55-----55---------|

intro[again]
D|------------------------------------------------------------------------|
A|------------------------------------------------------------------------|
F|------------------------------------------------------------------------|
C|--0~~~~~~~~~-777777-----------------------------------------------------|
G|--0~~~~~~~~~-777777-7h8--0000-000-000-00--000---0-0-0---0-0-0--0-0-0-0--|
C|--0~~~~~~~~~-777777------0000-000-000-000-000---0-0-0---0-0-0--0-0-0-0--|
PM             ******

Interlude[guitar two]
D|------------------------|
A|------------------------|
F|------------------------|
C|--77-----3~~---55--5~~--|
G|--77-----3~~---33--5~~--|
C|--77-----3~~-------5~~--|

Interlude[guitar two] not to sure. working on it still.
D|----------------------------------------------|
A|--13--12---15-12--13--15-12--13~12~10~12~~----|
D|----12---12--12-12--12--12--------------------|
C|----------------------------------------------|
G|----------------------------------------------|
C|----------------------------------------------|


verse2[guitar one]
D|-----------------------------------------------------|
A|-----------------------------------------------------|
F|-----------------------------------------------------|
C|--222222222--3333333333--555555555--5555555555-------|
G|--000000000--3333333333--333333333--5555555555-------|
C|-------------3333333333-------------5555555555-------|
PM                         *********  **********

D|------------------------------------------------------------------------|
A|----------8888--------------88888---------------------------------------|
F|--4445555------5555-44445555-----5555555--------------------------------|
C|--------------------------------------------555555555--5555555555-------|
G|--------------------------------------------333333333--5555555555-------|
C|-------------------------------------------------------5555555555-------|
Pm                                             ********   *********

D|-----------------------------------------------------|
A|-----------------------------------------------------|
F|-----------------------------------------------------|
C|--222222222--3333333333--555555555--5555555555-------|
G|--000000000--3333333333--333333333--5555555555-------|
C|-------------3333333333-------------5555555555-------|

Outro[both guitars]
D|------------------------------------------------------------------------|
A|------------------------------------------------------------------------|
F|------------------------------------------------------------------------|
C|-77777777777777------7~-------------------------------------------------|
G|-77777777777777-7h8--7~-------------------------------------------------|
C|-77777777777777------7~-------------------------------------------------|
PM **************

I hope you enjoy yourself. these guys are amazing

http://www.myspace.com/snowwhitespoisonbite
Tap to rate this tab
# A B C D E F G H I J K L M N O P Q R S T U V W X Y Z