Song name
# A B C D E F G H I J K L M N O P Q R S T U V W X Y Z

Snow - Haha tab

INTRO
e-8-7-5-2-3---|
b--5-7-5-6-9~-|
g-------------|
d-------------|
a-------------|
e-------------|

vrese
e-----------------------|
b-----------------------|
g-----------------------|
d--5-5---7----  reapet--| x5
a--5-5---7--------------|
e-3--3---5-589----------|

chrous
e-------------|
b-------------|
g-------------|
d-4-7-10-6-11-|
a-4-7-10-6-11-|
e-2-5--8-4-9--|
Tap to rate this tab
 
# A B C D E F G H I J K L M N O P Q R S T U V W X Y Z