Guitaretab - guitar tabs
Song name
# A B C D E F G H I J K L M N O P Q R S T U V W X Y Z

Snowden - Anti-anti tab

OK This is my first tab so be gentle.
First is guitar 1. Listen to the song to figure out what he plays where.

Intro. ( starts at 0:14 into the song)
Tremlo Picked

e|----------------------------|
B|----------------------------|
G|--8-/--11/4--8/--------11/9-|
D|----------------------------|    x2
A|----------------------------|
D|----------------------------|

Just before the verse:

e|----------------------------|
B|----------------------------|
G|----------------------------|
D|----------------------------|
A|----------------------------|
D|-2--4/9--4--4--6--1--2------|

1st Verse

e|-----------------------------|
B|-----------------------------|
G|-----------------------------|
D|-----------------------------|
A|-7-7-7-7--7/2-2/1------------|
D|-----------------------------|

e|-----------------------------|
B|-----------------------------|
G|-----------------------------|
D|-----------------------------|
A|-7-7-7-7--7-7-7--------------|
D|-----------------------------|

e|--x-x-x-x-x-x----------------|
B|--x-x-x-x-x-x----------------|
G|--x-x-x-x-x-x----------------|
D|--x-x-x-x-x-x----------------|
A|--x-x-x-x-x-x----------------|
D|--x-x-x-x-x-x----------------|

e|-----------------------------|
B|-----------------------------|
G|-----------------------------|
D|-----------------------------|
A|-7-7-7-7--7/2-2/1------------|
D|-----------------------------|


e|--x-x-x-x-x-x----------------|
B|--x-x-x-x-x-x----------------|
G|--x-x-x-x-x-x----------------|
D|--x-x-x-x-x-x----------------|
A|--x-x-x-x-x-x----------------|
D|--x-x-x-x-x-x----------------|

e|----------------------------|
B|----------------------------|
G|----------------------------|
D|----------------------------|
A|----------------------------|
D|-2--4/9--4--4--6--1--2------|

Chorus

e|----------------------------|
B|----------------------------|
G|--8-/--11/4--8/--------11/9-|
D|----------------------------|    x3
A|----------------------------|
D|----------------------------|

e|----------------------------|
B|----------------------------|
G|--8-/--11/4-----------------|
D|----------------------------|
A|----------------------------|
D|----------------------------|

e|----------------------------|
B|----------------------------|
G|----------------------------|
D|----------------------------|
A|----------------------------|
D|-2--4/9--4--4--6--1--2------|

Verse 2 

Plays nothing until 1:50 into the song

e|----------------------------|
B|----------------------------|
G|----------------------------|
D|----------------------------|
A|----------------------------|
D|-2--4/9--4--4--6--1--2------|

Chorus 2


e|----------------------------|
B|----------------------------|
G|--8-/--11/4--8/--------11/9-|
D|----------------------------|    x3
A|----------------------------|
D|----------------------------|
[ Tab from: http://www.guitaretab.com/s/snowden/109881.html ]
e|----------------------------|
B|----------------------------|
G|--8-/--11/4-----------------|
D|----------------------------|
A|----------------------------|
D|----------------------------|

e|----------------------------|
B|----------------------------|
G|----------------------------|
D|----------------------------|
A|----------------------------|
D|-2--4/9--4--4--6--1--2------|

Outro

e|----------------------------|
B|----------------------------|
G|----------------------------|
D|----------------------------|  x4
A|----------------------------|
D|-----4--4--4--4-------------|

e|----------------------------|
B|----------------------------|
G|----------------------------|
D|----------------------------|  x4
A|----------------------------|
D|-----1--1--1--1-------------|

e|----------------------------|
B|----------------------------|
G|----------------------------|
D|----------------------------|  x4
A|----------------------------|
D|-----4--4--4--4-------------|

e|----------------------------|
B|----------------------------|
G|----------------------------|
D|----------------------------|  x4
A|----------------------------|
D|-----1--1--1--1-------------|

e|-----1--1--1--1-------------|
B|-----4--4--4--4-------------|
G|-----3--3--3--3-------------|
D|-----1--1--1--1-------------|  x4
A|-----1--1--1--1-------------|
D|-----1--1--1--1-------------|

e|-----4--4--4--4-------------|
B|-----7--7--7--7-------------|
G|-----6--6--6--6-------------|
D|-----4--4--4--4-------------|  x4
A|-----4--4--4--4-------------|
D|-----4--4--4--4-------------|

e|-----1--1--1--1-------------|
B|-----4--4--4--4-------------|
G|-----3--3--3--3-------------|
D|-----1--1--1--1-------------|  x4
A|-----1--1--1--1-------------|
D|-----1--1--1--1-------------|

e|-----4--4--4--4-------------|
B|-----7--7--7--7-------------|
G|-----6--6--6--6-------------|
D|-----4--4--4--4-------------|  x4
A|-----4--4--4--4-------------|
D|-----4--4--4--4-------------|

(Tremlo picked)

e|----------------------------|
B|----------------------------|
G|-8-11-6-4-3-8---------------|
D|----------------------------|
A|----------------------------|
D|----------------------------|

e|----------------------------|
B|----9--8----------9--8------|
G|-8--------------8-----------|
D|----------------------------|
A|----------------------------|
D|----------------------------|

e|----------------------------|
B|----------------------------|
G|-8-11-6-4-3-8---------------|
D|----------------------------|
A|----------------------------|
D|----------------------------|

e|----------------------------|
B|----9--8----------9--11--12-|
G|-8--------------8-----------|
D|----------------------------|
A|----------------------------|
D|----------------------------|


e|----------------------------|
B|----------------------------|
G|----------------------------|
D|----------------------------|
A|----------------------------|
D|--2-----4---------9---------|

Guitar 2 will be coming soon so remember to look out for it!
Anti-anti chords by Snowden