Song name
# A B C D E F G H I J K L M N O P Q R S T U V W X Y Z

Snowing - Pump Fake tab

-------------------------------------------------------------------------------
			     PUMP FAKE - Snowing
-------------------------------------------------------------------------------
Tabbed by: michal23
http://www.snowingtheband.com/

Tuning: I've tabbed this in Standard (EADGBE), although Snowing play in a different 
tuning of which I'm not sure.

I'm not sure this is 100% correct, but it sounds pretty accurate to me. The rest of the 
song is mostly variations on this pattern with more guitars coming in to add various 
embellishments. This is, however, the core of the song.

e|--------------------- 0-------------------------------------------------------|
B|-0h2-----2h0-------------2----3h2---------------------------------------------|
G|-----2-------2--------------------2-------------------------------------------|
D|-------------------0----------------------------------------------------------|
A|-0-------2--------------------------------------------------------------------|
E|---------------2---------0----------------------------------------------------|
Tap to rate this tab
# A B C D E F G H I J K L M N O P Q R S T U V W X Y Z