Song name
# A B C D E F G H I J K L M N O P Q R S T U V W X Y Z

Snowing - Methuselah Rookie Card tab

ARTIST: Snowing
ALBUM: Fuck Your Emotional Bullshit
SONG: MethuselAh Rookie Card
TUNING: Drop D

Not sure if it's really in Drop D, but this version of playing it works just fine for 
me. Can't believe there wasn't any Snowing posted here (at least, not MUCH Snowing...one 
intro tab was all there was.) Enjoy it, guys.

E|-----------------------------------------------------------------|
B|-----------------------------------------------------------------|
G|---6---6---6-6-6-6---6-6---6-6-6-6---6-6---6-6-6-6---6-6---6-6---|
D|---7---7---7-7-7-7---7-7---7-7-7-7---7-7---7-7-7-7---7-7---7-7---|
A|---0---0---0-0-0-0---0-0---0-0-0-0---0-0---0-0-0-0h9-9-9---9-7---|
D|-----------------------------------------------------------------|

E|---------------------------------------------------------------------|
B|---------------------------------------------------------------------|
G|---6---6-6---6-6-6-6---6-6---6-6-X-6---6-6---6-6-6-6---6-6---6-6-X---|
D|---7---7-7---7-7-7-7---7-7---7-7-X-7---7-7---7-7-7-7---7-7---7-7-X---|
A|---5---5-5---5-5-5-5---5-5---5-5-X-X---X-X---X-X-X-X---X-X---X-X-X---|
E|---------------------------------X-9---9-9---9-9-9-9---9-9---9-9-X---|

Here's the intro riff. Play it twice - on the second time, the strum pattern varies a 
bit, but it doesn't matter too much, unless you're super particular, in which case, feel 
free to figure it out for yourself.

E|------------------------------------------------------------------------------|
B|------------------------------------------------------------------------------|
G|------------------------------------------------------------------------------|
D|---14-14-7-7-7-7-9-9-9-9-11-11-11-11-14-14-14-14-7-7-7-7-9-9-9-9-16---16-14---|
A|----X--X-X-X-X-X-X-X-X-X--X--X--X--X--X--X--X--X-X-X-X-X-X-X-X-X--X----X--X---|
E|---14-14-7-7-7-7-9-9-9-9-11-11-11-11-14-14-14-14-7-7-7-7-9-9-9-9-16---16-14---|

Comes right after the intro riff, this is the first guitar from what I can tell. Play it 
four times.

E|-----------------------------------------------------------------------------|
B|-----------------------------------------------------------------------------|
G|---11-11---9-----------------------------------------------------------------|
D|---11-11---9---11-------------9h11p9\7---------------------------------------|
A|----9--9---7------12----11h12-------------------------11h12-12/14\12-11h12---|
E|---------------------14----------------7/9-9/11-11/14------------------------|

This riff is tricky, if only because of how quick he plays it. Once you get the picking 
timing down, it's a lot easier. Play it four times too, and end with two of those 
11-11-9 power chords.

E|--------------------------------------------------------------|
B|--------------------------------------------------------------|
G|---6-6---7-7---11-11---9-9---6-6---7-7---11-11---9-14-14-14---|
D|---6-6---7-7---11-11---9-9---6-6---7-7---11-11---9-14-14-14---|
A|---4-4---5-5----9--9---7-7---4-4---5-5----9--9---7-12-12-12---|
E|--------------------------------------------------------------|

E|----------------------------------------------------------------------|
B|----------------------------------------------------------------------|
G|---7-7-7---7-7-7---7-7-7-7-7/9----------------------------------------|
D|---7-7-7---7-7-7---7-7-7-7-7/9---9-9-9---9-9-9---9-9-9-9-11h12p0------|
A|---5-5-5---5-5-5---5-5-5-5-5/7---9-9-9---9-9-9---9-9-9-9---------12---|
E|---------------------------------9-9-9---9-9-9---9-9-9-9--------------|

Fun riff, play it twice. The second time, just strum constantly instead of in two strum 
intervals for the first section. Timing isn't too tough to get down.

E|----------------------------------------|
B|----------------------------------------|
G|---9----------------9---------11-11-9---|
D|-------7---9---11-------7---9-----------|
A|----------------------------------------|
E|----------------------------------------|

Twinkly happy joy joy x4. My sea legs are wearing down.

E|-----------------------------------------------------------------------|
B|-------------------------------2p0-------------------3---2-------------|
G|-------------------------2h4-------2-------------------------2-h-4p2---|
D|---4-4-2-0---------0h2h4-------------------4-4-2-0---------------------|
A|---4-4-2-0---0h2h4-------------------0-0-0-4-4-2-0---------------------|
E|---4-4-2-0---------------------------0-0-0-4-4-2-0---------------------|
                                     PM-----|

Play 8X, and every second time, excerpt the 4-4-4 and 2-2-2 power chords at the start of 
the section. You'll understand what I'm saying when you listen to the music at the same 
time. End with three palm muted 4-4-4 power chords.

And that's it! Fairly simple overall, but super fun to play.
Tap to rate this tab
 
# A B C D E F G H I J K L M N O P Q R S T U V W X Y Z