Song name
# A B C D E F G H I J K L M N O P Q R S T U V W X Y Z

Snowkel - Namikaze Satellite tab

intro (notes in parenthesis are optional to play or not for chords.
also not in rhythm so time it)
e-0-0-0-0-0--4--4--4--4--4---7--7--7--7--7---4--4--4--4--4--|
b-2-2-2-2-2--5--5--5--5--5---9--9--9--9--9---5--5--5--5--5--|
g-2-2-2-2-2--6--6--6--6--6---9--9--9--9--9---6--6--6--6--6--|
d-2-2-2-2-2-(6)(6)(6)(6)(6)-(9)(9)(9)(9)(9)-(6)(6)(6)(6)(6)-|
a-0-0-0-0-0-(4)(4)(4)(4)(4)-(7)(7)(7)(7)(7)-(4)(4)(4)(4)(4)-|
e-----------------------------------------------------------|

Break
Piano
e-5--4-4--2-2-------------5--4-4--2-2-------2-4-5-7-|
b--------------5-5--2-2----------------5-5----------| 2x
g---------------------------------------------------|

second time, play at the end  e-5

Lead Guitar
e-5--4-2----------| repeat
b--------5-2h3p2--| many
g-----------------| times

Rhythm Guitar
(can either power chord it or play it's regular chords.
I find it easier with the regular chords)
Chords:   D            A                 E              F#m
e-2-2-2-2-2-2-2-2--0-0-0-0-0-0-0-0-------------------2-2-2-2-2-2-2-2-|
b-3-3-3-3-3-3-3-3--2-2-2-2-2-2-2-2--0-0-0-0-0-0-0-0--2-2-2-2-2-2-2-2-|
g-2-2-2-2-2-2-2-2--2-2-2-2-2-2-2-2--1-1-1-1-1-1-1-1--2-2-2-2-2-2-2-2-|
d-0-0-0-0-0-0-0-0--2-2-2-2-2-2-2-2--2-2-2-2-2-2-2-2--4-4-4-4-4-4-4-4-|
a------------------0-0-0-0-0-0-0-0--2-2-2-2-2-2-2-2--4-4-4-4-4-4-4-4-|
e-----------------------------------0-0-0-0-0-0-0-0--2-2-2-2-2-2-2-2-|

Verse
e--5~---7~--0~--4~--|
b--7~---9~--2~--5~--|
g--7~---9~--2~--6~--| 2x
d--7~---9~--2~--6~--|
a-(5~)-(7~)-0~-(4~)-|
e-------------------|

e-2-2-2-2-2-2-2-2--0-0-0-0-0-0-0-0-------------------2-2-2-2-2-2-2-2-|
b-3-3-3-3-3-3-3-3--2-2-2-2-2-2-2-2--0-0-0-0-0-0-0-0--2-2-2-2-2-2-2-2-|
g-2-2-2-2-2-2-2-2--2-2-2-2-2-2-2-2--1-1-1-1-1-1-1-1--2-2-2-2-2-2-2-2-|
d-0-0-0-0-0-0-0-0--2-2-2-2-2-2-2-2--2-2-2-2-2-2-2-2--4-4-4-4-4-4-4-4-|
a------------------0-0-0-0-0-0-0-0--2-2-2-2-2-2-2-2--4-4-4-4-4-4-4-4-|
e-----------------------------------0-0-0-0-0-0-0-0--2-2-2-2-2-2-2-2-|

Chorus
e-2-2-2-2-2-2-2-2--0-0-0-0-0-0-0-0-------------------2-2-2-2-2-2-2-2-|
b-3-3-3-3-3-3-3-3--2-2-2-2-2-2-2-2--0-0-0-0-0-0-0-0--2-2-2-2-2-2-2-2-|
g-2-2-2-2-2-2-2-2--2-2-2-2-2-2-2-2--1-1-1-1-1-1-1-1--2-2-2-2-2-2-2-2-|
d-0-0-0-0-0-0-0-0--2-2-2-2-2-2-2-2--2-2-2-2-2-2-2-2--4-4-4-4-4-4-4-4-|
a------------------0-0-0-0-0-0-0-0--2-2-2-2-2-2-2-2--4-4-4-4-4-4-4-4-|
e-----------------------------------0-0-0-0-0-0-0-0--2-2-2-2-2-2-2-2-|

Fill Part
e---------------------------|
b---------------------------|
g-----6-----7-----6---------| 2x
d-----7-----7-----7-----9-9-|
a-----7-----7-----7-----9-9-|
e-5-5-5-5-5-5-5-5-5-5-5-7-7-|

This is as far as i got.  should be a start.
Working on the guitar by itself part but it's late.  haha
http://www.snowkel.com/
Tap to rate this tab
 
# A B C D E F G H I J K L M N O P Q R S T U V W X Y Z