Song name
# A B C D E F G H I J K L M N O P Q R S T U V W X Y Z

Snowmine - Let Me In tab

This is the tabs for the two bridges of Let Me In by Snowmine Hope oyu like them

This is the first bridge between two chorus
e-----------------------------|--------------------------------------------|
B-------------2-2-2-2-2-2-2-2-|-------------4-4-4-4-4-4-2-2/7-7-7-11-11-11-|
G-------3-3-3-----------------|-------4-4-4--------------------------------|
D-4-4-4-----------------------|-6-6-6--------------------------------------|
A-----------------------------|--------------------------------------------|
E-----------------------------|--------------------------------------------|

e-14-14-14-14-14-14-14-14-|-9-9-9-12-12-12-16-16-16-16-16-16-14-|
B-------------------------|-------------------------------------|
G-------------------------|-------------------------------------|
D-------------------------|-------------------------------------|
A-------------------------|-------------------------------------|
E-------------------------|-------------------------------------|

This is the second bridge between the chorus and the 3th verse
e---------14-14-14-----------------------------------------------------||
B-14(x12)----------12(x8)-11-11-11-12(x8)-11-11-11-12(x8)-16-16-16-16-||
G----------------------------------------------------------------------||
D----------------------------------------------------------------------||
A---------------------------------------------------------------------||
E----------------------------------------------------------------------||

Sooo thats it hope u enjoy it, I like this song sooo much and i like even more playing it.
If u have problems playing it, hear the song and get the timing
Tap to rate this tab
 
# A B C D E F G H I J K L M N O P Q R S T U V W X Y Z