Song name
# A B C D E F G H I J K L M N O P Q R S T U V W X Y Z

Snowmine - Saucer Eyes tab

Standard Tuning
This song only contains a few guitar parts with a lot of repetition.

[0:00]-[0:23]
|---------------------------------------------------|
|------------------------------------9--9--9--9--9--|
|----------9-6--6--6--6--6--9--9---6----------------|
|--9--9-6-9---------------------6-9-----------------|
|---------------------------------------------------|
|---------------------------------------------------|
|
|---------------------------------------------|
|---------------------------------------------|
|----------9-6--6--6--6--6--8--8-6-8----------|
|--9--9-6-9--------------------------9-9-9-9--|
|---------------------------------------------|
|---------------------------------------------|
|
|x2

[0:23]-[0:44]
|-----------------------------------------------------16--16--16--16--16--|
|---------------17-14--14--14--14--14--17--17------14---------------------|
|--16--16-13-16------------------------------13-17------------------------|
|-------------------------------------------------------------------------|
|-------------------------------------------------------------------------|
|-------------------------------------------------------------------------|
|
|----------------------------------------------------------------|
|---------------17-14--14--14--14--14--16--16-14-16--------------|
|--16--16-13-16-------------------------------------16-16-16-16--|
|----------------------------------------------------------------|
|----------------------------------------------------------------|
|----------------------------------------------------------------|
|
|x2

[0:34]-[0:44]
|--------------------------------------|
|--------------------------------------|
|--------------------------------------|
|--2-2-2-2--2-2-2-2--4-4-4-4--4-4-4-4--|
|--------------------------------------|
|--------------------------------------|
|
|--------------------------------------|
|--------------------------------------|
|--------------------------------------|
|--2-2-2-2--2-2-2-2--2-2-2-2--2-2-2-2--|
|--------------------------------------|
|--------------------------------------|

[0:44]-[0:57]
|-------------------------------------------|
|-------------------------------------------|
|--4444-4444-4444-4444-4444-4444-4444-2222--|
|-------------------------------------------|
|-------------------------------------------|
|-------------------------------------------|
|
|---------------------------------------|
|-------444------444------444------444--|
|--11111----11111----11111----11111-----|
|---------------------------------------|
|---------------------------------------|
|---------------------------------------|

[0:57]-[1:19]
|---------------------------------------------------|
|------------------------------------9--9--9--9--9--|
|----------9-6--6--6--6--6--9--9---6----------------|
|--9--9-6-9---------------------6-9-----------------|
|---------------------------------------------------|
|---------------------------------------------------|
|
|---------------------------------------------|
|---------------------------------------------|
|----------9-6--6--6--6--6--8--8-6-8----------|
|--9--9-6-9--------------------------9-9-9-9--|
|---------------------------------------------|
|---------------------------------------------|
|
|x2

[1:19]-[1:38]
|-------------------------------------------|
|-------------------------------------------|
|--4444-4444-4444-4444-4444-4444-4444-2222--|
|-------------------------------------------|
|-------------------------------------------|
|-------------------------------------------|
|
|---------------------------------------|
|-------444------444------444------444--|
|--11111----11111----11111----11111-----|
|---------------------------------------|
|---------------------------------------|
|---------------------------------------|

[1:48]-[1:50]
|--------|
|-----9--|
|--6--6--|
|--6-----|
|--------|
|--------|

[2:03]-[2:24]
|-------------------------------------------|
|-------------------------------------------|
|--4444-4444-4444-4444-4444-4444-4444-2222--|
|-------------------------------------------|
|-------------------------------------------|
|-------------------------------------------|
|
|---------------------------------------|
|-------444------444------444------444--|
|--11111----11111----11111----11111-----|
|---------------------------------------|
|---------------------------------------|
|---------------------------------------|
|
|x2

[2:24]-[3:02]
|---------------------------------------------------|
|------------------------------------9--9--9--9--9--|
|----------9-6--6--6--6--6--9--9---6----------------|
|--9--9-6-9---------------------6-9-----------------|
|---------------------------------------------------|
|---------------------------------------------------|
|
|---------------------------------------------|
|---------------------------------------------|
|----------9-6--6--6--6--6--8--8-6-8----------|
|--9--9-6-9--------------------------9-9-9-9--|
|---------------------------------------------|
|---------------------------------------------|
|
|x3

[3:02]-[3:19]
|-------------------------------------------|
|-------------------------------------------|
|--4444-4444-4444-4444-4444-4444-4444-2222--|
|-------------------------------------------|
|-------------------------------------------|
|-------------------------------------------|
|
|---------------------------------------|
|-------444------444------444------444--|
|--11111----11111----11111----11111-----|
|---------------------------------------|
|---------------------------------------|
|---------------------------------------|
|
|x2
Tap to rate this tab
# A B C D E F G H I J K L M N O P Q R S T U V W X Y Z