Song name
# A B C D E F G H I J K L M N O P Q R S T U V W X Y Z

Snowmine - The Hill tab

-------------------------------------------------------------------------------
                             The Hill - Snowmine
-------------------------------------------------------------------------------

Tuning: Standard

---------------
Intro and Verse

e|------------------------------------------------------------------------------|
B|------------------------------------------------------------------------------|
G|---------11---------11---------11--------13-11-9------------------------------|
D|-------9----------9----------9--------11--------------------------------------|
A|------------------------------------------------------------------------------|
E|-10-10------10-10------10-10--------------------------------------------------|


-------
Chorus

        Guitar 1 (right channel)

e|---9---------9-------9------11----------9---------9--------9-------11---------|
B|----10-9------10-9----10-9----12-9-12----10-9------10-9------10-9----12-9-----|
G|-------------------------------------------------------------------------11---|
D|------------------------------------------------------------------------------|
A|--------------------9-------------------------------------9-------------------|
E|-10--------10-------------------------10--------10----------------------------|

        Guitar 2 (left channel)

e|---9---------9-------9------------------9---------9--------9-------------------|
B|------10-9-----10-9----10-9--12-9-9------10-9------10-9-----10-9--12-9---------|
G|---------------------------------8------------------------------------8--------|
D|-----------------------------------------------------------------------11------|
A|--------------------9------------------------------------9---------------------|
E|-10--------10-------------------------10--------10-----------------------------|



-------
Bridge

e|---------------------------------------------------------------------------|
B|---------------------------------------------------------------------------|
G|--/14--14-14-14-14-11--/14--14-14-14-14-11--9-11-11--9-11-11---------------|
D|---------------------------------------------------------------------------| 
A|---------------------------------------------------------------------------|
E|---------------------------------------------------------------------------|


e|--------------------------------------------------------9------------------|
B|-------------------------------------------------10-12---------------------|
G|--/14--14-14-14-14-11--/14--14-14-14-14-11--9-11---------------------------|
D|---------------------------------------------------------------------------|
A|---------------------------------------------------------------------------|
E|---------------------------------------------------------------------------|


        (Tremolo picking) listen to the record for the duration of each note
e|---------------------------------------------------------------------------9.---|
B|---------10.-9.-10.-9.-------------------------10.-9.-10.-9.-------10.-12.------|
G|--11.-9.---------------9.-11./6.-4./9.---11.-9.-------------9.-11.--------------|
D|--------------------------------------------------------------------------------|
A|--------------------------------------------------------------------------------|
E|--------------------------------------------------------------------------------|


------
Outro

        Guitar 1 (Right channel)
e|---------------------------------------------------------------------------|
B|---------------------------------10-10-10-10-10--9-------------------------|
G|--11-11-11-11-11--9-11--11-11-9--------------------8--8-8-6----------------| Repeat until the end
D|---------------------------------------------------------------------------|
A|---------------------------------------------------------------------------|
E|---------------------------------------------------------------------------|


        Guitar 2 (Left channel)
e|-9--9--9--9--9---7--9---9--9--7----9---9---9---9---9---7-------------------|
B|-7--7--7--7--7---5--7---7--7--5---10--10--10--10--10---9--7--2-2--5--------|
G|----------------------------------------------------------8--4-4--6--------|
D|---------------------------------------------------------------------------| Repeat until the end
A|---------------------------------------------------------------------------|
E|---------------------------------------------------------------------------|



Structure of the song:
-Intro
-Verse
-Chorus
-Verse
-Chorus
-Bridge
-Chorus
-Outro

************************************

| /   slide up
| \   slide down
| h   hammer-on
| p   pull-off
| ~   vibrato
| +   harmonic
| x   Mute note
| b   Bend
| pb  Pre-bend
| br  Bend release
| pbr Pre-bend release
| brb Bend release bend

************************************
Tap to rate this tab
# A B C D E F G H I J K L M N O P Q R S T U V W X Y Z