Song name
# A B C D E F G H I J K L M N O P Q R S T U V W X Y Z

Snuff - Efl Acoustic tab

Snuff

EFL

Intro

  C  Em Am Dm C
|-0--0--0--1--0-------|
|-1--0--1--3--1-------|
|-0--0--2--2--0-------|
|-2--2--2--0--2-------|
|-3--2--0--0--3-2-0-2-|
|----0----------------|


Verse etc

C Em Am  Dm  G
C Em Am  Dm  G
C    F
C    F
C Em Am  Dm  G

|-3--3--3--3--3--3--3--0-------|
|-3--0--3--0--3--0--3--1-------|
|-0--0--0--0--0--0--0--0-------|
|-0--0--0--0--0--0--0--2-------|
|-2--2--2--2--2--2--2--3-2-0-2-|
|-3--3--3--3--3--3--3----------|

Not totally sure about the last part with the G chords but it is as right as I can get it!
Tap to rate this tab
# A B C D E F G H I J K L M N O P Q R S T U V W X Y Z