Guitaretab - guitar tabs
Song name
# A B C D E F G H I J K L M N O P Q R S T U V W X Y Z

Snugglewhippers - My Day Out tab

Snugglewhippers - My Day Out
----------------------------
Tabbing By Steve Melville


This is my second tabbing and is the classic hit by the upcoming
underated fourpiece - The SnuggleWhippers

U should by now know the words but ill put em on just in case u dont

Apply usual snugglewhippers distortion

Intro and verses
----------------


e||---------------------------------------------------------------|
b||---------------------------------------------------------------|
G||---9-9-9--7-7-7--9-9-9--7-7-7--9-9-9--7-7-7--9-9-9--7-7-7------|
D||---9-9-9--7-7-7--9-9-9--7-7-7--9-9-9--7-7-7--9-9-9--7-7-7------|
A||---7-7-7--5-5-5--7-7-7--5-5-5--7-7-7--5-5-5--7-7-7--5-5-5------|
E||---------------------------------------------------------------|

This is played and then the lyrics come in
The above is continued

I knew from the start
My day wound be a bitch
Cus when I stepped out the door
I fell into a ditch

RIFF 1
------

e||----------------|
b||----3po2--------|
G||----------------|
D||----------------|
A||----------------|
E||----------------|

Lyrics
------

Bollocks


The intro guitaring then continues for the second verse:

I was walkin to work
When I turned down the lane
Just my fuckin luck
I was hit by a train

------
Riff 1
------

Lyrics
------

ummm bugger

Chorus
------

Palm mute play this twice with th lyrics below it
[ Tab from: http://www.guitaretab.com/s/snugglewhippers/44569.html ]
e||----------------------------------------------------|
b||----------------------------------------------------|
G||--9-9-9-9-------------------------------------------|
D||--9-9-9-9--9-9-9-9--11-11-11-11--9-9-9-9------------|
A||--7-7-7-7--9-9-9-9--11-11-11-11--9-9-9-9------------|
E||-----------7-7-7-7---9--9--9--9--7-7-7-7------------|

Im seeing its not my day
But at least im not gay


e||--------------------------------------------------------------------|
b||--------------------------------------------------------------------|
G||--------------------------------------------------------------------|
D||--9-9-9--7-7-7--5-5-5--9-9-9--7-7-7--5-5-5--9-9-9--7-7-7--5-5-5-----|
A||--9-9-9--7-7-7--5-5-5--9-9-9--7-7-7--5-5-5--9-9-9--7-7-7--5-5-5-----|
E||--7-7-7--5-5-5--3-3-3--7-7-7--5-5-5--3-3-3--7-7-7--5-5-5--3-3-3-----|

Im not gay,Im not gay,Im not gay,
Im not gay,Im not gay,Im not gay,
Im not gay,Im not gay,Im not gay,

Back into intro guitaring

Verse 3
-------

I was lucky it never hurt me
So I didn't make a fuss
I got back to my feet
And was hit by a bloody bus

------
Riff 1
------

oh shit


Verse 4
-------

I swallowed my tooth
and nearly chocked dead
I fell to the floor
Where a big fat gay gave me head


------
Riff 1
------

sod this


------
CHORUS
------

Verse 5
-------

I went for a walk
on which i had a spliff
when a fuckin seagull stole it
and pushed me down a cliff

Outro
-----

e||-------------------|
b||-------------------|
G||--5-5-5--3-3-3--2--|
D||--5-5-5--3-3-3--2--|
A||--3-3-3--1-1-1--0--|
E||-------------------|


Key
---

po = pull off


Difficult song i know but keep practising and you should get there
If you like my bands stuff you should email me and let me know or
even if you want us for a gig.

contact: steve_shack9@hotmail.com
Related for My Day Out tab
My Day Out chords by Snugglewhippers