Song name
# A B C D E F G H I J K L M N O P Q R S T U V W X Y Z

So Many Dynamos - Oh The Devastation tab

So Many Dynamos- Oh, the Devastation

First tab for them, and they are a signed band, so here's a link to some of their website:
http://dynamosrecording.blogspot.com/


Listen for the timing to these parts because the song is in 5/4.

  part 1
e|4------------  |----------------|
B|---7-5-------  |----------------|
G|-------6-4---  |4h6-4h6-4h6-4---|
D|-----------6-x3|--------------6-|
E|-------------  |----------------|
A|-------------  |----------------|


  part 2
e|----------------------------------|
B|----------------------------------|
D|--------6---11p8--------------9p6-|
G|6--9-6----6-----------------------|
A|-----------------9--7-9--11-9-----|
E|----------------------------------|

The other guitar part during part 2:
 strum these quickly
e|11-------9----|
B|12x5-----10x5-|
G|13-------11---|
D|--------------|
A|--------------|
E|--------------|

e|----------|
B|----------|
G|----------|
D|2----4----|
A|2x10-4x10-
E|0----2----


Play part 1

Play part 2


The below is played at the end of a measure the second time part 2 is played. Listen for 
it's pretty blatant.
e|9--
B|10-
G|11-
D|---
A|---
E|---

Also, the guitar playing the part with the pull-offs in part 2 is now playing the chords below.
The syncopation is pretty easy to figure out.
e|-------|
B|7----5-|
G|8----6-|
D|9----7-|
A|-------|
E|-------|

         A
e|------------------|---------------------------------------|
B|------------------|---------------------------------------|
G|-----------7-9----|7--9--7--9--7--9--7--9--7--9-7-9-7-9-7-|
D|------7-10-----x6-|---------------------------------------|
A|7-10--------------|---------------------------------------|
E|------------------|---------------------------------------|

"A" gets played twice, and a second guitar plays this:
e|--------------|
B|8-10-8-10-8---|
G|------------9-|
D|--------------|
A|--------------|
E|--------------|

e|------------------|---------------------------------------|
B|------------------|---------------------------------------|
G|-----------7-9----|7--9--7--9--7--9--7--8--7--8-7-8-7-8-7-|
D|------7-10-----x2-|---------------------------------------|
A|7-10--------------|---------------------------------------|
E|------------------|---------------------------------------|

e|------------------|-------------------------------------------|
B|------------------|-------------------------------------------|
G|-----------7-9----|7--9--7--9--7--9--7--11--7--11-7-11-7-11-7-|
D|------7-10-----x2-|-------------------------------------------|
A|7-10--------------|-------------------------------------------|
E|------------------|-------------------------------------------|

e|------------------------------------|
B|------------------------------------|
G|----------6-------------------------|
D|2----4----6x10-6----7----4---4--4-2-|
A|2x10-4x10-4----6x10-7x10-4x7-4--4-2-|
E|0----2---------4----5----2---2--2-0-|
Tap to rate this tab
# A B C D E F G H I J K L M N O P Q R S T U V W X Y Z