Song name
# A B C D E F G H I J K L M N O P Q R S T U V W X Y Z

So Many Dynamos - In Every Direction tab

Help us improve GuitareTab! Take a short survey!
Off their second album, "Flashlights". Enjoy.

part 1 lead
e|------------------11-11-11----------------------------15-15-15-16-16-16-16--|
B|---------------------------13-13-13-14-14-14-11-11-11-----------------------|
G|10-10-10-13-13-10-----------------------------------------------------------|
D|----------------------------------------------------------------------------|
A|----------------------------------------------------------------------------|
E|----------------------------------------------------------------------------|

part 1 rhythm
e|----------------------------------------------|
B|13---13---13---14---14---11-------------------|
G|13---13---13---15---15---12-------------------|
D|15---15---15---15---15---11-------------------|
A|----------------------------------------------|
E|----------------------------------------------|

pre-chorus riff
e|----------------------------------------------|
B|----13-------8--------------------------------|
G|----13-------10-------------------------------|
D|/15-15---\10-10-------------------------------|
A|----------------------------------------------|
E|----------------------------------------------|


part 2(chorus)
e|----------------------------------------------|
B|----------------------------13----------------|
G|---------13------------12---13-x6-------------|
D|11p10---------11p10---------15----------------|
A|------13------------13------------------------|
E|----------------------------------------------|

different voicing
e|------------------------8---------------------|
B|--------9-----------8---9-x6------------------|
G|------------------------10--------------------|
D|11\10\8-----11\10\8---------------------------|
A|----------------------------------------------|
E|----------------------------------------------|

part 1

part 3
e|---------------------------------------------------|
B|--------------------------------------12-----------|
G|----10-------10---11\10-8-10-----------------------|
D|-----------------------------11-10-10----10--------|x2
A|8-8----8-8-8----8----------------------------------|
E|---------------------------------------------------|

then
e|---------------------------------------------------|
B|---------------------------------------------------|
G|--10----10-------10----11\10-8-10---------12-------|
D|---------------------------------------------------|x2
A|8----8-----8-8-8----10-----------11-10-10----10----|
E|---------------------------------------------------|

pre-chorus
part 2(chorus)

same chords from rhythm part 1 and this lead part:
e|-----------------------------------------------------------|
B|---------16------------15------------14---11xx11/13-11/13--|
G|13p12---------13p12---------11p12---------10xx10/13-11/13--|
D|------15------------15------------15-----------------------|
A|-----------------------------------------------------------|
E|-----------------------------------------------------------|
Related for In Every Direction tab