Song name
# A B C D E F G H I J K L M N O P Q R S T U V W X Y Z

So Stereo - What You Wanted Me To Do tab

my first tab-- not all of the guitar 2's are here, sorry!
http://www.myspace.com/saveourstereo

Intro/Verse
Guitar 1
E|---------------------|     |-------------------2--|
B|-------------------3-|     |----------------------|
G|--4-4-4-4-4-4-4p2-2--|     |--4-4-4-4-4-4-4p2-2---|
D|---------------------|  x3 |----------------------|
A|---------------------|     |----------------------|
E|---------------------|     |----------------------|

Guitar 2
     G    B
E|---------------|
B|---------------|
G|--------4------|
D|---5----4------|      x6
A|---5----2------|
E|---3-----------|
"I got enough bad habits, enough loose strings
Now my hands are tied amongst a number of things
And you, then there's you

And I don't have to look for trouble when it's following me
Despite my vision only you I see
It's you, yeah there was always you"


Pre-Chorus
     E   C   E   G
E|-------------------|
B|-------------------|
G|---1---5---1-------|
D|---2---5---2---5---|         
A|---2---3---2---5---|
E|---------------3---|
"So don't say it's over 'tll it's over
A love song and nothing else to show for
Blaming me the weight that's on your shoulder love"



Chorus
     D   A   G   B   A
E|--------------------|
B|-------------------2|
G|---7-----------4---2|   x2
D|---7---7---5---4---2|
A|---5---7---5---2----|
E|-------5---3--------|
"So whatcha waiting for you wanted me to do
I wrote a love song, a love song for you
Cause you don't have it right

And she said love don't shine and doubt you've chosen mine
And if it wasn't your fault it surely wasn't mine
I said all the right things at all the wrong times
And if you want to keep your heart
Then give me mine"



(Verse)

(Pre-Chorus)

(Chorus)


Instrumental/Solo
Guitar 1
E|------------------------------------------------------------------------|
B|--7h8p7--5-----7-----7h8p7--5-----10-8-7---7h8p7-5----------------------|
G|-----------7-9--7-------------7-9-----------------7-7-9-7-7-9-7-9/11-9p7|
D|---------------------------------------------------9-----9--------------|
A|------------------------------------------------------------------------|
E|------------------------------------------------------------------------|


E|---5------5-7-5h7-5-----5h7-7p5---|
B|----------------------------------|
G|--7-----7--------------7----------|
D|----------------------------------|
A|----------------------------------|
E|----------------------------------|


Guitar 2
     D   A   G   B
E|-------------------|
B|-------------------|
G|---7-----------4---|   x2
D|---7---7---5---4---|
A|---5---7---5---2---|
E|-------5---3-------|


Repeat chorus over and over

Tap to rate this tab
 
# A B C D E F G H I J K L M N O P Q R S T U V W X Y Z