Song name
# A B C D E F G H I J K L M N O P Q R S T U V W X Y Z

So They Say - Drink Of Poison tab

ok its pretty straight forward its jus power chords so follow this tab 


-x---x-----x----x----------------------------------------|
-x---x-----x----x----------------------------------------|
-x---x-----x----x----------------------------------------|
-x---x-----x----x----------------------------------------|
11---9-----7----9----------------------------------------|
9----7-----5----7----------------------------------------|

next the whole band comes in but you play it like this



0----0----0-----0----------------------------------------|
0----0----0-----0----------------------------------------|
0----0----0-----0----------------------------------------|
11---9----7-----9----------------------------------------|
11---9----7-----9----------------------------------------|
9----7----5-----7----------------------------------------|

didnt put the strumming in but you can figure ot put


x = do not hit
0 = open chords



Tap to rate this tab
# A B C D E F G H I J K L M N O P Q R S T U V W X Y Z