Guitaretab - guitar tabs
Song name
# A B C D E F G H I J K L M N O P Q R S T U V W X Y Z

So They Say - Antidote For Irony tab

----------------------------------------------------------------------------
	                Antidote For Irony - So They Say
----------------------------------------------------------------------------
Tabbed by:Dan
Email:Dannewscreename@AIM.com

Tuning:Standard

INTRO:         -Guitar 1-
e|--------------------------------------------------------------------------|
B|--------------------------------------------------------------------------|
G|--------------------------------------------------------------------------|
D|--------------------------------------------------------------------------|
A|---88---------44---------88---------66------------------------------------|
E|---66---------22---------66---------44------------------------------------|

               -Guitar 2-
e|----9-8-------------------------------------------------------------------|
B|--------9-11--------------------------------------------------------------|
G|--------------------------------------------------------------------------|
D|-------------------------------------8--10--11--13------------------------|
A|--------------------------------------------------------------------------|
E|--------------------------------------------------------------------------|
[ Tab from: http://www.guitaretab.com/s/so-they-say/78024.html ]
               -Guitar 1-
e|--------------------------------------------------------------------------|
B|--------------------------------------------------------------------------|
G|--------------------------------------------------------------------------|
D|--------------------------------------------------------------------------|
A|----8----------------8------4--6--------------8-----------------6---------|
E|----6-x12------------6-x12--2--4--------------6-x12-------------4---------|

               -Guitar 2-
e|----------------------------------------------------------------9-8--------|
B|--------------------------------------------------------------------9-11---|
G|---------------------------------------------------------------------------|
D|-------------------------10b11--8------------------------------------------|
A|----------------------------------11-999-11--------------------------------|
E|---------------------------------------------------------------------------|


 the rest of the song just gas alot of
e|--------------------------------------------------------------------------|
B|--------------------------------------------------------------------------|
G|--------------------------------------------------------------------------|
D|--------------------------------------------------------------------------|
A|-------8---4---6----------------------------------------------------------|
E|-------6---2---4----------------------------------------------------------|
                           ...just mess around with it.
Related for Antidote For Irony tab
Advertisement will be closed in 10 seconds