Song name
# A B C D E F G H I J K L M N O P Q R S T U V W X Y Z

So - Lifes Too Hard tab

e|--------------|--------------|--------------|--------------| 
B|--------------|--------------|--------------|--------------|
G|-------9--7---|-------9----7-|------9--7----|--7-7---5-5---| 
D|--7---------9-|--7--7-------9|7--7-------9--|--7-7---5-5---| 
A|--------------|--------------|--------------|--5-5---3-3---|  x2 
E|--------------|--------------|--------------|--------------|


e|--------------|--------------|--------------|------9-7---------|
B|--------------|--------------|--------------|----------9--7----|
G|-------9--7---|-------9----7-|------9--7----|--7h8-------------|
D|--7---------9-|--7--7-------9|7--7-------9--|------------------|
A|--------------|--------------|--------------|---------------10-|
E|--------------|--------------|--------------|------------------|

e|--------------|--------------|--------------|-9-7--------------|
B|--------------|--------------|--------------|-----9--7---------|
G|-------9--7---|-------9----7-|------9--7----|------------------|
D|--7---------9-|--7--7-------9|7--7-------9--|------------------|
A|--------------|--------------|--------------|----------10-8----|
E|--------------|--------------|--------------|----------------10|

Link to the official website: http://www.showbyso.com/


AAore - 

Tap to rate this tab
 
# A B C D E F G H I J K L M N O P Q R S T U V W X Y Z