Song name
# A B C D E F G H I J K L M N O P Q R S T U V W X Y Z

Soak - Sea Creatures tab

Sea Creatures By Soak
She is an Irish artist from Derry
Rate this fairly as it is my first tab

Intro

e|------x------------x-----------------x----x-----x--------------------------|
B|------x------------x-----------------x----x-----x--------------------------|
G|------x-----6h4----x----6h4----------x----x-----x--------------------------|
D|----0-x--0-------0-x--0--------------x----x-----x---------9----------------|
A|----6-x--4-------6-x--4------------9-x--7-x---9-x--9/11-----11-------------|
E|------x------------x---------------0-x--0-x---0-x--0-----------------------|

Main Riff

e|------x------------x-----------------x----x-----x--------------------------|
B|------x------------x-----------------x----x-----x--------------------------|
G|------x------------x-----------------x----x-----x--------------------------|
D|----0-x--0-------0-x--0--------------x----x-----x--------------------------|
A|----6-x--4-------6-x--4------------9-x--7-x---9-x--7-----------------------|
E|------x------------x---------------0-x--0-x---0-x--0-----------------------|

"I CRY FOR YOU" outro part

e|----4-x--2-------4-x--2--------------x----x--------x----x------------------|
B|------x------------x-----------------x----x--------x----x------------------|
G|------x------------x-----------------x----x--------x----x------------------|
D|----0-x--0-------0-x--0------------9-x--6-x------9-x--7-x------------------|
A|----6-x--4-------6-x--4------------7-x--7-x------7-x--6-x------------------|
E|------x------------x-----------------x----x--------x----x------------------|

Listen to the real thing!!!

http://www.youtube.com/watch?v=PQSTAI3VR2Q
Tap to rate this tab
# A B C D E F G H I J K L M N O P Q R S T U V W X Y Z