Song name
# A B C D E F G H I J K L M N O P Q R S T U V W X Y Z

Soapdish - Tensionado tab

Artist:Soapdish
Song Title:Tensionado
Tabber:Enrico Pili
Eto nga pala tab ko para sa solo ng tensionado
im sure this is 100% accurate.
Suggestions?request?comments or corrections
please email me at
enricopili06@gmail.com
http://www.facebook.com/profile.php?id=100000920448313

Tuning:Eadgbe(Standard)


 |----------------------------------------------------------------------------|
 |----------------------------------------------------------------------------|
 |---14-14-14-14-14-14-14-14-14-14-14-14b/-----------14h16-13---13h14-11------|
 |-------------------------------------------------14----------14---------12--|
 |----------------------------------------------------------------------------|
 |----------------------------------------------------------------------------|
 
 |----------------------------|--------------------------|---------------------------------|
 |-----------------------------|--------14----------17b19|-17b19r17-14-17------------------|
 |------14h16-16b18r16-14-16-|---14-16----16-14-16------ |-----------------16b18r16-14-----|
 |---16----------------------- |--------------------------|--------------------------------|
 |-----------------------------|--------------------------|--------------------------------|
 |---------------------------- |--------------------------|--------------------------------|

 |----------------------------|----------------------------------------------------|
 |----------------------------|----------------------14---14-17-17b19--------------|
 |---------14-16-16b18-16b18|-------------14---14-16---16--------------------------|
 |--14-16------------------ --|------14------16------------------------------------|
 |----------------------------|14-16---16------------------------------------------|
 |----------------------------|----------------------------------------------------| 



  ************************************

 | /   slide up
 | \   slide down
 | h   hammer-on
 |  p   pull-off
 | ~   vibrato
 | +   harmonic
 | x   Mute note
 | b   Bend
 | pb  Pre-bend
 | br  Bend release
 | pbr Pre-bend release
 | brb Bend release bend

 ************************************
Tap to rate this tab
# A B C D E F G H I J K L M N O P Q R S T U V W X Y Z