Song name
# A B C D E F G H I J K L M N O P Q R S T U V W X Y Z

Sobule Jill - I Kissed A Girl tab

From: bemont@austin.asc.slb.com

"I Kissed a Girl" - Jill Scobeel(sp?)

I am not sure about the spelling of the singer's name... please correct me.
Jill, forgive me :).

As always, I've tried to represent timing as best I can.

Any corrections welcome.  I'm still pretty new at this.  It's still hard for
me to hear chords...  but this sounds good to me.


I: (intro, chorus, solo, outro)

e-|--------3-----3--3--3-----|--------3--3--------3--3--|
B-|--------3-----3--3--3-----|--------3--3--------3--3--|
G-|--------0-----0--0--0-----|--------0--0--------0--0--|
D-|--------------------------|--------------------------|
A-|--------------------------|--3-----------2-----------|
E-|--3-----------------------|--------------------------|


e-|--------3-----3--3--3-----|--------3-----------------|
B-|--------3-----3--3--3-----|--------3-----------------|
G-|--------0-----0--0--0-----|--------0-----------------|
D-|--------------------------|--------------------------|
A-|--0-----------------------|--0--------------2-h3-p2--|
E-|--------------------------|--------------------------|

II: (verse)

|  G  |  C  | Am  |  G  |

III: (prechorus)

|  Am |  Em | Am  |  Em |

IV: (bridge)

|  C  |  C  |  D  |  D  |



I 	2X
II	2X
III	2X
I	2X
II	2X
III	2X
I	2X
IV	1X
I	2X
II	2X
I	many X and fade

--Les

From austin.asc.slb.com!bemont Fri May 19 17:05:31 1995
Return-Path: 
Received: from alf2.tcd.ie by sadhbh.scrg.cs.tcd.ie with smtp
	(Smail3.1.28.1 #3) id m0sCUYM-00058BC; Fri, 19 May 95 17:05 WET DST
Received: from post-office.nevada.edu by alf2.tcd.ie; (5.65/1.1.8.2/28Sep94-0239PM)
	id AA02434; Fri, 19 May 1995 17:06:30 +0100
Received: from austin.asc.slb.com (PIGPEN-CLEAR.AUSTIN.ASC.SLB.COM [163.185.74.6]) by post-office.nevada.edu (8.6.11/8.6.4) with SMTP id JAA12389 for ; Fri, 19 May 1995 09:06:19 -0700
From: bemont@austin.asc.slb.com
Received: from tellurium (TELLURIUM.AUSTIN.ASC.SLB.COM) by austin.asc.slb.com (4.1/relay.950113a)
	id AA11488; Fri, 19 May 95 11:07:07 CDT
Received: by tellurium (4.1/client.nfs.930922a)
	id AA16241; Fri, 19 May 95 11:07:06 CDT
Date: Fri, 19 May 95 11:07:06 CDT
Message-Id: <9505191607.AA16241@tellurium>
To: guitar@nevada.edu
Subject: TAB: "I Kissed a Girl" - Jill Sobule (corrected artist name)
Status: O

"I Kissed a Girl" - Jill Sobule
 
Transcribed by Les Bemont (bemont@austin.asc.slb.com)

As always, I've tried to represent timing as best I can.

Any corrections welcome.  I'm still pretty new at this.  It's still hard for
me to hear chords...  but this sounds good to me.


I: (intro, chorus, solo, outro)

e-|--------3-----3--3--3-----|--------3--3--------3--3--|
B-|--------3-----3--3--3-----|--------3--3--------3--3--|
G-|--------0-----0--0--0-----|--------0--0--------0--0--|
D-|--------------------------|--------------------------|
A-|--------------------------|--3-----------2-----------|
E-|--3-----------------------|--------------------------|


e-|--------3-----3--3--3-----|--------3-----------------|
B-|--------3-----3--3--3-----|--------3-----------------|
G-|--------0-----0--0--0-----|--------0-----------------|
D-|--------------------------|--------------------------|
A-|--0-----------------------|--0--------------2-h3-p2--|
E-|--------------------------|--------------------------|

II: (verse)

|  G  |  C  | Am  |  G  |

III: (prechorus)

|  Am |  Em | Am  |  Em |

IV: (bridge)

|  C  |  C  |  D  |  D  |



I 	2X
II	2X
III	2X
I	2X
II	2X
III	2X
I	2X
IV	1X
I	2X
II	2X
I	many X and fade
Tap to rate this tab
# A B C D E F G H I J K L M N O P Q R S T U V W X Y Z