Song name
# A B C D E F G H I J K L M N O P Q R S T U V W X Y Z

Social Code - Bomb Hands tab

Similar to the other tab except instead of half a step down its in drop D

Intro
|------------------------------------|
|------------------------------------|
|---------88-888-8-77-777-7-55-555-5-| x2
|55-555-5-88-888-8-77-777-7-55-555-5-|
|55-555-5-66-666-6-55-555-5-33-333-3-|
|55-555-5----------------------------|

Verse
|------------------------------------|
|------------------------------------|
|---------88-888-8-77-777-7-55-555-5-| x2
|55-555-5-88-888-8-77-777-7-55-555-5-|
|55-555-5-66-666-6-55-555-5-33-333-3-|
|55-555-5----------------------------|

|------------------------------------|
|------------------------------------|
|---------88888888-7777777777777-----|
|55555555-88888888-7777777777777-----|
|55555555-66666666-5555555555555-----|
|55555555----------------------------|


Chorus
|--------------------------------------------------------------------|
|--------------------------------------------------------------------|
|-------3--33-------------------------3-333-------------------3-333--|
|1--11--3--33--3-----x2--then---1-111-3-333-3-333-5-555-1-111-3-333-3|
|1--11--1--11--3----------------1-111-1-111-3-333-5-555-1-111-1-111-3|
|1--11---------3----------------1-111-------3-333-5-555-1-111-------3|

Pre-Verse
|------------------------------------|
|------------------------------------|
|---------88-888-8-77-777-7-55-555-5-|
|55-555-5-88-888-8-77-777-7-55-555-5-|
|55-555-5-66-666-6-55-555-5-33-333-3-|
|55-555-5----------------------------|

Verse
Chorus

(Guitar One)
|--------------------------------------------------------------------------|
|--------------------------------------------------------------------------|
|33333333-55555555-33333333-7777-5555-33333333-55555555-7777-5555-3333-5555|
|xxxxxxxx-xxxxxxxx-xxxxxxxx-xxxx-xxxx-xxxxxxxx-xxxxxxxx-xxxx-xxxx-xxxx-xxxx|
|11111111-33333333-11111111-5555-3333-11111111-33333333-5555-3333-1111-3333|
|--------------------------------------------------------------------------|

(Guitar One) at 1:30
|------------------------------------------------------------------------|
|------------------------------------------------------------------------|
|33333333-55555555-33333333-7777-5555-3333333333333333-5555555555555555-7|
|xxxxxxxx-xxxxxxxx-xxxxxxxx-xxxx-xxxx-xxxxxxxxxxxxxxxx-xxxxxxxxxxxxxxxx-x|
|11111111-33333333-11111111-5555-3333-1111111111111111-3333333333333333-5|
|------------------------------------------------------------------------|

Pick slide at 1:41

1:47
|-------|
|-------|
|-------|
|-------| x7
|-6-5-3-|
|5------|

1:55
|-----------------------------------------------|
|-----------------------------------------------|
|--------33-3333------------------------33-3333-|
|11-1111-33-3333-33-3333-55-5555-00-111-33-3333-|x3
|11-1111-11-1113-33-3333-55-5555-00-111-11-1111-|
|11-1111---------11-1113-33-3333-00-111---------|

|---------------------------------------------------------|
|---------------------------------------------------------|
|---------------------------------------------------------|
|11-111111111111-33-333333333333-55-555-555-555-555-555-55|
|11-111111111111-33-333333333333-55-555-555-555-555-555-55|
|11-111111111111-33-333333333333-55-555-555-555-555-555-55|
Tap to rate this tab
 
# A B C D E F G H I J K L M N O P Q R S T U V W X Y Z