Song name
# A B C D E F G H I J K L M N O P Q R S T U V W X Y Z

Social Code - Perfect Grave tab

Artist:Social Code
Song:Perfect Grave
Tuning: Standard w/Capo 2

The strummimg pattern is easy to figure out, i tried to show it the best 
i could...there is another guitar doing its own thing in the background, but
i tabbed the main one...enjoy.

Intro/verse
In your room, you sleep all day so nothing gets to you...
e|---0---0---0-----0---0---0-----0---0---0-----0---0---0--------| x4
B|---0---0---0-----0---0---0-----0---0---0-----0---0---0--------|
G|---0---0---0-----0---0---0-----0---0---0-----0---0---0--------|
D|---2---2---2-----2---2---2-----5---5---5-----4---4---4--------|
A|---2---2---2-----3---3---3-----5---5---5-----5---5---5--------|
E|---0---0---0-----3---3---3-----3---3---3-----5---5---5--------|

Pre Chorus
e|-------------------------------x-x-x-x-------| x1
B|-------------------------------x-x-x-x-------|
G|-------------------------------x-x-x-x-------|
D|---5-5-5-5-5-5-5-5-5---7-7-7---x-x-x-x-------|
A|---5-5-5-5-5-5-5-5-5---7-7-7---x-x-x-x-------|
E|---3-3-3-3-3-3-3-3-3---5-5-5---x-x-x-x-------|

Chorus
I will not follow you into a perfect grave...
e|---0-0-0-0-0-0---0-0-0-0---0-0-0-0-0-0---0-0-0-0--------------| x2
B|---0-0-0-0-0-0---0-0-0-0---0-0-0-0-0-0---0-0-0-0--------------|
G|---0-0-0-0-0-0---0-0-0-0---0-0-0-0-0-0---0-0-0-0--------------|
D|---2-2-2-2-2-2---2-2-2-2---5-5-5-5-5-5---4-4-4-4--------------|
A|---3-3-3-3-3-3---2-2-2-2---5-5-5-5-5-5---5-5-5-5--------------|
E|---3-3-3-3-3-3---0-0-0-0---3-3-3-3-3-3---5-5-5-5--------------|

...chorus continued
e|---0-0-0-0-0-0---0-0-0-0---0-0-0-0-0-0---0-0-0-0---0----------| x1
B|---0-0-0-0-0-0---0-0-0-0---0-0-0-0-0-0---0-0-0-0---0----------|
G|---0-0-0-0-0-0---0-0-0-0---0-0-0-0-0-0---0-0-0-0---0----------|
D|---2-2-2-2-2-2---2-2-2-2---5-5-5-5-5-5---4-4-4-4---2----------|
A|---3-3-3-3-3-3---2-2-2-2---5-5-5-5-5-5---5-5-5-5---3----------|
E|---3-3-3-3-3-3---0-0-0-0---3-3-3-3-3-3---5-5-5-5---3----------|


I'll never know what you're feeling inside...
e|---0-0-0-0-0-0-0-0-0-0-0-0-0-0-0----0-0-0-0---0-0-0-0---------| x2
B|---x-x-x-x-x-x-x-x-x-x-x-x-x-x-x----0-0-0-0---0-0-0-0---------|
G|---5-5-5-5-5-5-5-5-5-5-5-5-5-5-5----0-0-0-0---0-0-0-0---------|
D|---7-7-7-7-7-7-7-7-7-7-7-7-7-7-7----2-2-2-2---4-4-4-4---------|
A|---7-7-7-7-7-7-7-7-7-7-7-7-7-7-7----2-2-2-2---5-5-5-5---------|
E|---5-5-5-5-5-5-5-5-5-5-5-5-5-5-5----0-0-0-0---5-5-5-5---------|


I could keep digging and wreck my life too...
e|---0-0-0-0-0-0-0-0-0-0-0-0-0-0-0----0-0-0-0---0-0-0-0----0----| x1
B|---x-x-x-x-x-x-x-x-x-x-x-x-x-x-x----0-0-0-0---0-0-0-0----0----|
G|---5-5-5-5-5-5-5-5-5-5-5-5-5-5-5----0-0-0-0---0-0-0-0----0----|
D|---7-7-7-7-7-7-7-7-7-7-7-7-7-7-7----2-2-2-2---4-4-4-4----2----|
A|---7-7-7-7-7-7-7-7-7-7-7-7-7-7-7----2-2-2-2---5-5-5-5----3----|
E|---5-5-5-5-5-5-5-5-5-5-5-5-5-5-5----0-0-0-0---5-5-5-5----3----|
Tap to rate this tab
 
# A B C D E F G H I J K L M N O P Q R S T U V W X Y Z