Song name
# A B C D E F G H I J K L M N O P Q R S T U V W X Y Z

Social Code - Bomb Hands tab

Bomb Hands
Social Code
Social Code

Tuning : Half Step Down(D#,G#,C#,F#,A#,D#)


Intro
|------------------------------------|
|------------------------------------|
|---------99-999-9-88-888-8-66-666-6-| x2
|66-666-6-99-999-9-88-888-8-66-666-6-|
|66-666-6-77-777-7-66-666-6-44-444-4-|
|44-444-4----------------------------|

Verse
|------------------------------------|
|------------------------------------|
|---------99-999-9-88-888-8-66-666-6-| x2
|66-666-6-99-999-9-88-888-8-66-666-6-|
|66-666-6-77-777-7-66-666-6-44-444-4-|
|44-444-4----------------------------|


|------------------------------------|
|------------------------------------|
|---------99999999-8888888888888-----|
|66666666-99999999-8888888888888-----|
|66666666-77777777-6666666666666-----|
|44444444----------------------------|


Chorus
|--------------------------------------------------------------------|
|--------------------------------------------------------------------|
|-------4--44-------------------------4-444-------------------4-444--|
|2--22--4--44--4-----x2--then---2-222-4-444-4-444-6-666-2-222-4-444-4|
|2--22--2--22--4----------------2-222-2-222-4-444-6-666-2-222-2-222-4|
|0--00---------2----------------0-000-------2-222-4-444-0-000-------2|

Pre-Verse
|------------------------------------|
|------------------------------------|
|---------99-999-9-88-888-888-888-8--|
|66-666-6-99-999-9-88-888-888-888-8--|
|66-666-6-77-777-7-66-666-666-666-6--|
|44-444-4----------------------------|

Verse
Chorus

(Guitar One)
|--------------------------------------------------------------------------|
|--------------------------------------------------------------------------|
|44444444-66666666-44444444-8888-6666-44444444-66666666-8888-6666-4444-6666|
|xxxxxxxx-xxxxxxxx-xxxxxxxx-xxxx-xxxx-xxxxxxxx-xxxxxxxx-xxxx-xxxx-xxxx-xxxx|
|22222222-44444444-22222222-6666-4444-22222222-44444444-6666-4444-2222-4444|
|--------------------------------------------------------------------------|

(Guitar One) at 1:30
|------------------------------------------------------------------------|
|------------------------------------------------------------------------|
|44444444-66666666-44444444-8888-6666-4444444444444444-6666666666666666-8|
|xxxxxxxx-xxxxxxxx-xxxxxxxx-xxxx-xxxx-xxxxxxxxxxxxxxxx-xxxxxxxxxxxxxxxx-x|
|22222222-44444444-22222222-6666-4444-2222222222222222-4444444444444444-6|

Pick slide at 1:41

1:47
|-------|
|-------|
|-------|
|-------| x7
|-7-6-4-|
|4------|

1:55
|-----------------------------------------------|
|-----------------------------------------------|
|--------44-4444------------------------44-4444-|
|22-2222-44-4444-44-4444-66-6666-00-222-44-4444-|x3
|22-2222-22-2224-44-4444-66-6666-00-222-22-2222-|
|00-0000---------22-2224-44-4444-00-000---------|

|---------------------------------------------------------|
|---------------------------------------------------------|
|---------------------------------------------------------|
|22-222222222222-44-444444444444-66-666-666-666-666-666-66|
|22-222222222222-44-444444444444-66-666-666-666-666-666-66|
|00-000000000000-22-222222222222-44-444-444-444-444-444-44|
Tap to rate this tab
 
# A B C D E F G H I J K L M N O P Q R S T U V W X Y Z