Song name
# A B C D E F G H I J K L M N O P Q R S T U V W X Y Z

Social Code - Shortest Line tab

The Shortest Line guitar intro

standard tuning both guitar 1 and guitar 2

/ - slide
x - palm mute (up and down)

guitar 1
E|----------------------------------------------------------------|
b|----------------------------------------------------------------|
g|-11-11-11-1111-xxx-11-1111-xx-11-11-11-11-11-xxx-12-1111--xx----|
d|-9--9--9--9-9--xxx-9--9-9--xx-9--9--9--9--9--xxx-9--9-9---xx----|
a|-0--0--0--0-0--xxx-0--0-0--xx-0--0--0--0--0--xxx-0--0-0---xx----|
e|----------------------------------------------------------------|
                                                                   |
                                                                    x2
                                                                   |
E|----------------------------------------------------------------|
b|----------------------------------------------------------------|
g|-9-9-9-9-9-xxx-9-99-xx-9-9-9-9-9-xxx-9-9-9----------------------|
d|-7-7-7-7-7-xxx-7-77-xx-7-7-7-7-7-xxx-7-7-7----------------------|
a|-0-0-0-0-0-xxx-0-00-xx-0-0-0-0-0-xxx-0-0-0----------------------|
e|----------------------------------------------------------------|

guitar 2 (after 1 bar of guitar 1) 

E|----------------------------------------------------------------|
b|----------------------------------------------------------------|
g|--------------------------------12-11-----9---------------------|
d|----------------------------7-9-------12-9----------------------|
a|---------------------4-5-4--------------------------------------|
e|-7-5/7-x-2-5-7---5-7--------------------------------------------|

E|----------------------------------------------------------------|
b|----------------------------------------------------------------|
g|-----12-11---7/9------------------------------------------------|
d|-7-9-------12---------------------------------------------------|
a|----------------------------------------------------------------|
e|----------------------------------------------------------------|

contact : brandonmanuel8@hotmail.com
Tap to rate this tab
# A B C D E F G H I J K L M N O P Q R S T U V W X Y Z