Song name
# A B C D E F G H I J K L M N O P Q R S T U V W X Y Z

Social Distortion - Ring Of Fire tab

Intro
P.M.-------------------------------------------------------------------------|
|----------------------------------------------------------------------------|
|------------------------------------------------\\--------------------------|
|--------------------------------3-3-3-3-3-3-3-3-\\pick-slide----------------|
|3-3-3-3-3-3-3-3-3-3-3-3-3-3-3-3-3-3-3-3-3-3-3-3-\\--------------------------|
|1-1-1-1-1-1-1-1-1-1-1-1-1-1-1-1-1-1-1-1-1-1-1-1-----------------------------|
|----------------------------------------------------------------------------|


|--------------------------------------------------------------------------|
|6-----8-4-6-----33333333-4-1-33333333-----6-----8-4-6---//slide-----------|
|--------------------------------------------------------------------------|
|--------------------------------------------------------------------------|
|--------------------------------------------------------------------------|
|--------------------------------------------------------------------------|


|--------------------------------------------------------------------------|
|33333333-4-1-33333333-----------------------------------------------------|
|--------------------------------------------------------------------------|
|--------------------------------------------------------------------------|
|--------------------------------------------------------------------------|
|--------------------------------------------------------------------------|


Pre-Chorus  x3

P.M.-------------------------------------------------------------------------|
|----------------------------------------------------------------------------|
|----------------------------------------------------------------------------|
|----------------------------------------------------------------------------|
|3-3-3-3-3-3-3-3-3-3-3-3-3-3-55-3-3-3-3-3-3-3-3-3-3-3-3-3-3-3-3-3-3----------|
|1-1-1-1-1-1-1-1-1-1-1-1-1-1-33-1-1-1-1-1-1-1-1-1-1-1-1-1-1-1-1-1-1----------|
|----------------------------------------------------------------------------|


Pre-Chorus (After 3x of one above)

P.M.-------------------------------------------------------------------------|
|----------------------------------------------------------------------------|
|---------------------------------------------------------------\\pick-------|
|---------------------------------------------------------------\\-----------|
|3-3-3-3-3-3-3-3-3-3-3-3-3-3-55-3-3-3-3-3-3-3-3-3-3-3-3-3-3-3-3-\\slide------|
|1-1-1-1-1-1-1-1-1-1-1-1-1-1-33-1-1-1-1-1-1-1-1-1-1-1-1-1-1-1-1--------------|
|----------------------------------------------------------------------------|


Chorus

|--------------------------------------------------------------------------|
|6666666666666666-44444444-666666666666666666666666-44444444-66666666------|
|--------------------------------------------------------------------------|
|--------------------------------------------------------------------------|
|--------------------------------------------------------------------------|
|--------------------------------------------------------------------------|


|--------|
|66666666|
|--------|
|--------|(Only this part) x7
|--------|
|--------|


Pre-Chorus  x3

P.M.-------------------------------------------------------------------------|
|----------------------------------------------------------------------------|
|----------------------------------------------------------------------------|
|----------------------------------------------------------------------------|
|3-3-3-3-3-3-3-3-3-3-3-3-3-3-55-3-3-3-3-3-3-3-3-3-3-3-3-3-3-3-3-3-3----------|
|1-1-1-1-1-1-1-1-1-1-1-1-1-1-33-1-1-1-1-1-1-1-1-1-1-1-1-1-1-1-1-1-1----------|
|----------------------------------------------------------------------------|


Pre-Chorus (After 3x of one above)

P.M.-------------------------------------------------------------------------|
|----------------------------------------------------------------------------|
|---------------------------------------------------------------\\pick-------|
|---------------------------------------------------------------\\-----------|
|3-3-3-3-3-3-3-3-3-3-3-3-3-3-55-3-3-3-3-3-3-3-3-3-3-3-3-3-3-3-3-\\slide------|
|1-1-1-1-1-1-1-1-1-1-1-1-1-1-33-1-1-1-1-1-1-1-1-1-1-1-1-1-1-1-1--------------|
|----------------------------------------------------------------------------|


Chorus

|--------------------------------------------------------------------------|
|6666666666666666-44444444-666666666666666666666666-44444444-66666666------|
|--------------------------------------------------------------------------|
|--------------------------------------------------------------------------|
|--------------------------------------------------------------------------|
|--------------------------------------------------------------------------|


|--------|                  |----------------------------------------------|
|66666666|                  |\\--------------------------------------------|
|--------|                  |\\pick slide----------------------------------|
|--------|(Only this part)x6|\\--------------------------------------------|
|--------|                  |----------------------------------------------|
|--------|                  |----------------------------------------------|

Interlude
|--------------------------------------------------------------------------|
|6-----8-4-6-----33333333-4-1-33333333-----6-----8-4-6---//slide-----------|
|--------------------------------------------------------------------------|
|--------------------------------------------------------------------------|
|--------------------------------------------------------------------------|
|--------------------------------------------------------------------------|


|--------------------------------------------------------------------------|
|33333333-4-1-333333//slide------------------------------------------------|
|--------------------------------------------------------------------------|
|--------------------------------------------------------------------------|
|--------------------------------------------------------------------------|
|--------------------------------------------------------------------------|

Chorus
|--------------------------------------------------------------------------|
|6666666666666666-44444444-666666666666666666666666-44444444-66666666------|
|--------------------------------------------------------------------------|
|--------------------------------------------------------------------------|
|--------------------------------------------------------------------------|
|--------------------------------------------------------------------------|


|--------|
|66666666|
|--------|
|--------|(Only this part) x7
|--------|
|--------|


Pre-Chorus  x3

P.M.-------------------------------------------------------------------------|
|----------------------------------------------------------------------------|
|----------------------------------------------------------------------------|
|----------------------------------------------------------------------------|
|3-3-3-3-3-3-3-3-3-3-3-3-3-3-55-3-3-3-3-3-3-3-3-3-3-3-3-3-3-3-3-3-3----------|
|1-1-1-1-1-1-1-1-1-1-1-1-1-1-33-1-1-1-1-1-1-1-1-1-1-1-1-1-1-1-1-1-1----------|
|----------------------------------------------------------------------------|


Pre-Chorus (After 3x of one above)

P.M.-------------------------------------------------------------------------|
|----------------------------------------------------------------------------|
|---------------------------------------------------------------\\pick-------|
|---------------------------------------------------------------\\-----------|
|3-3-3-3-3-3-3-3-3-3-3-3-3-3-55-3-3-3-3-3-3-3-3-3-3-3-3-3-3-3-3-\\slide------|
|1-1-1-1-1-1-1-1-1-1-1-1-1-1-33-1-1-1-1-1-1-1-1-1-1-1-1-1-1-1-1--------------|
|----------------------------------------------------------------------------|


Chorus
|--------------------------------------------------------------------------|
|6666666666666666-44444444-666666666666666666666666-44444444-66666666------|
|--------------------------------------------------------------------------|
|--------------------------------------------------------------------------|
|--------------------------------------------------------------------------|
|--------------------------------------------------------------------------|


|--------|
|66666666|
|--------|
|--------|(Only this part) x7  REPEAT WHOLE CHORUS
|--------|
|--------|


|--------|
|66666666|
|--------|
|--------|(Only this part) x4 after repeating the whole chorus
|--------|
|--------|


Ending
|--------------------------------------------------------------------------|
|6-----8----4--------4^6---------------------------------------------------|
|--------------------------------------------------------------------------|
|--------------------------------------------------------------------------|
|--------------------------------------------------------------------------|
|--------------------------------------------------------------------------|


That's it!!! Have fun with it!
Tap to rate this tab
# A B C D E F G H I J K L M N O P Q R S T U V W X Y Z