Song name
# A B C D E F G H I J K L M N O P Q R S T U V W X Y Z

Social Distortion - Cant Take It With You tab

Well, they have done it! They made a new song released in their series of show in 
California at the HoB 2007


------------------------------------------------|
------------------------------------------------|
------------------------------------------------|
------------------------------------------------|
-7-7--9-9-9-9-----------------------------------|
-5-5--7-7-7-7-----------------------------------|

Continue the 7/9 power cord until he switches to 5/7 again, then repeat for a total of 2 times!


------------------------------------------------|
------------------------------------------------|
------------------------------------------------|
-7-7--9-9-9-9-----------------------------------|
-5-5--7-7-7-7-----------------------------------|
------------------------------------------------|
Continue the 7/9 power cord on the A string until he switches to 5/7 again, then repeat 
a total of 2 times!

CAPO on 2nd fret i believe

After you complete this just repeat for the rythm guitar throught the whole song. Hope 
enjoy, this was my first time submitting a tab so please be nice =)


any changes email me at deadkid248@hotmail.com
Tap to rate this tab
 
# A B C D E F G H I J K L M N O P Q R S T U V W X Y Z