Song name
# A B C D E F G H I J K L M N O P Q R S T U V W X Y Z

Social Distortion - Dont Drag Me Down tab

h-hammer on
b-bend
ph-pinch harmonic
p-pull off
s-slide

intro x2
E-----------------------------------------
B--8-8-------------4-4-4-4-4-6s8-8-8-6-8-6
G------8-8-5---5-5------------------------
D------------6----------------------------
A-----------------------------------------
E-----------------------------------------

verse/chorus
E---------------------------
B---------------------------
G-55555---------88888-------
D-55555--66666--88888--88888
A-33333--66666--66666--88888
E--------44444---------66666

bridge x2
E--------------------------------------
B--------------------------------------
G--55555--88888--1212121212--1010101010
D--------------------------------------
A--33333--66666--1010101010--8-8-8-8-8-
E--------------------------------------
 
solo 1
E--8888--------88---------88--------88--------88--------8
B--8888--------88---------88--------88--------88--------8
G-------11b(12)----11b(12)---11b(12)---11b(12)---11b(12)-
D--------------------------------------------------------
A--------------------------------------------------------
E--------------------------------------------------------

E--------------------------------------------------------
B--11-11-11p(8)---8---------------------8-11p8---8-------
G--------------10--10-8---8h10p8-10b(11)------10--10-8---
D-----------------------10-----------------------------10
A--------------------------------------------------------
E--------------------------------------------------------

E--------------------------------------------------------
B----------------8-11p8----------------------------------
G--8h10p8-10b(11)------10b(11)-10b(11)-10b(11)-----------
D---------------------------------------------8888h10-10-
A--------------------------------------------------------
E--------------------------------------------------------

E--------------------------------------------------------
B--------------------------------------------------------
G------------------------7-------------------------------
D-1010101010101010101010---10--1010101010----------------
A--------------------------------------------------------
E--------------------------------------------------------
Tap to rate this tab
# A B C D E F G H I J K L M N O P Q R S T U V W X Y Z