Song name
# A B C D E F G H I J K L M N O P Q R S T U V W X Y Z

Social Distortion - Dont Drag Me Down tab

   Social Distortion Don't Drag Me this is how Mike Ness plays it.....Look at any live 
and you'll see what I mean....


Rythm Guitar
       G   D  A
e|-----3---2-------|
B|-----3---3---2---|
G|--4--0---2---2---|
D|--4--0-------2---|
A|--2--2-----------|
E|-----3-----------|

Going into solo
e|-----------------|
B|-----------------|
G|--3--8--12--10---|
D|--3--8--12--10---|
A|--5--6--10--8----|
E|-----------------|

First Solo
e|--------8-8--------8-8--------8-8--------8-8--------8-8---|
B|-11b(13)----11b(13)----11b(13)----11b(13)----11b(13)------|
G|----------------------------------------------------------|
D|----------------------------------------------------------|
A|----------------------------------------------------------|
E|----------------------------------------------------------|

e---------------------------|
B--11-11-11-8-6---6-8-6-----|
G---------------8-------8-5-|
D---------------------------|
A---------------------------|
E---------------------------|

e---------------------------------------------------------|
B-6-6-6-8-8-11-8-6---6-8-6-------6-6-6-8-8-11-8-6---6-----|
G------------------8-------8-5--------------------8---8-5-|
D---------------------------------------------------------|
A---------------------------------------------------------|
E---------------------------------------------------------|

(~) = let note ring
e---------------------------------------------------|
B---------------------------------------------------|
G-5~~5~~5~~5~~5~~5~~5~~5~7~5~~5~~5~~5~~5~~5~~5~~~~~~|
D---------------------------------------------------|
A---------------------------------------------------|
E---------------------------------------------------|
 Second Solo
e--------8-8--------8-8--------8-8--------8-8--------8-8---|
B-11b(13)----11b(13)----11b(13)----11b(13)----11b(13)------|
G----------------------------------------------------------|
D----------------------------------------------------------|
A----------------------------------------------------------|
E----------------------------------------------------------|

e---------------------------|
B--11-11-11-8-6---6-8-6-----|
G---------------8-------8-5-|
D---------------------------|
A---------------------------|
E---------------------------|

e-------------------------------------------------------8-8-8-|
B--6-8bp6---6-8bp6---6-8bp6---6-8bp6---6-8-8-11-8-6---6-------|
G---------5--------5--------5--------5--------------8---------|
D-------------------------------------------------------------|
A-------------------------------------------------------------|
E-------------------------------------------------------------|

e--------8-8--------8-8--------8-8--------8-8--------8-8---|
B-11b(13)----11b(13)----11b(13)----11b(13)----11b(13)------|
G----------------------------------------------------------|
D----------------------------------------------------------|
A----------------------------------------------------------|
E----------------------------------------------------------|

e-----------------------------------|
B--13-13--16--16-16b(18)-16--13-----|
G-------------------------------15--|
D-----------------------------------|
A-----------------------------------|
E-----------------------------------|

e------------------------------------------------------|
B-6-6-6-8-8-11-8-6---6-8-6-------6-6-6-8-8-11-8-6---6--|
G------------------8-------8-5--------------------8----|
D------------------------------------------------------|
A------------------------------------------------------|
E------------------------------------------------------|

The play this x2
e--------------------------------------------------------|
B--8--------------------------------8---8------86~~------|
G-----8---------------8--8-8-8-8/-----------8------------|
D--------10------10--------------------------------------|
A-------------11-----------------------------------------|
E--------------------------------------------------------|
Tap to rate this tab
 
# A B C D E F G H I J K L M N O P Q R S T U V W X Y Z