Song name
# A B C D E F G H I J K L M N O P Q R S T U V W X Y Z

Social Distortion - Nickels Dimes tab

Song: Nickels and Dimes
Album: Sex, Love and Rock n Roll
Tuning: E flat (half step down)

Social Distortion is a band that ALL people should 
like if they're involved in the rock scene. If you don't, then 
you probably have some crappy musical taste. This band is one 
of my all time favorites and they're one of few bands who still 
play good ol' rock n roll. What's not to like right?
This is my favorite song off of their latest album 
which was released about 5 years ago. (c'mon Mike, we're 
waiting for some new stuff! =). Fifth track, very easy to play. 
I'm surprised that this hasn't been PROPERLY tabbed out yet. 
Strums not exact. Listen for the changes. Let's go!!

   VERSE: I'll put the power chords for the newbies. but Mike loves to
         play open chord versions when he's singing.Listen for the 
         palm mutes also.)
   G            D          A         D      G       A          D
e|----------------------------------------|-----------------------------|
B|----------------------------------------|-----------------------------|
G|-------------7--777--------------7-7-77-|--------------------7--------|
D|-5--555--5---7--777----7--777----7-7-77-|-5--------7---------7--------|X2
A|-5--555--5---5--555----7--777----5-5-55-|-5--------7---------5--------|
E|-3--333--3-------------5--555-----------|-3--------5------------------|
      ***         ***                         ***       ***

LEAD FILL BEFORE THE CHORUS:
e|--7--5--4----------|
B|------------5~-----|
G|-------------------|
D|-------------------|
A|-------------------|
E|-------------------|

CHORUS: (easy stuff)
   G    A    D
e|---------------|
B|---------------|
G|-----------7---|X4 (fourth time, listen for palm mutes)
D|-5----7----7---|
A|-5----7----5---|
E|-3----5--------|

Repeat VERSE
Repeat CHORUS

SOLO:

e|-/5555\4-4--7~--|-----------12------------------12~----------|
B|-/5555\4-4--4~--|-12(b)hold----12(b)12(b)12(r)--12~----------|
G|----------------|--------------------------------------------|
D|----------------|--------------------------------------------|
A|----------------|--------------------------------------------|
E|----------------|--------------------------------------------|

e|-----9-9-------7-7-7--|-7---77-7---77------------|
B|----------------------|-7h9-99-7h9-99--9-7-------|
G|-/9-------9\8---------|--------------------9-----|
D|----------------------|----------------------9~--|
A|----------------------|--------------------------|
E|----------------------|--------------------------|

e|-----------------------------4---------7-----|
B|----------------9----------6---6-----9---9---|
G|-/6---6--6/8------8------6-------6/9-------9-|
D|----7---------9-----9------------------------|
A|---------------------------------------------|
E|---------------------------------------------|

e|------------12-12------------------12-------------|
B|-12(b)hold--------12(r)-12--9---12----------------|
G|----------------------------------------11--9~----|
D|--------------------------------------------------|
A|--------------------------------------------------|
E|--------------------------------------------------|


Repeat VERSE
Repeat CHORUS

That's it for that one guys! Easy stuff. Look forward to tabbing out
some more Social D tabs since most of the ones that are posted are 
incomplete. Look out for more of my tabs. Let me know what you think. Have fun!

| /  slide up
| \  slide down
| h  hammer-on
| p  pull-off
| ~  vibrato
| +  harmonic
| x  Mute note
========================================================================


Tap to rate this tab
# A B C D E F G H I J K L M N O P Q R S T U V W X Y Z