Song name
# A B C D E F G H I J K L M N O P Q R S T U V W X Y Z

Social Distortion - Footprints On My Ceiling tab

Hey all, another great song by Social Distortion. The other tab on this site is wrong as 
note is up by a semi tone. Listen to the song and you'll see this is correct. Thanks.
Standard Tuning
* means palm mute
~ means let ring


Intro/Verse
e|--------------------------------------------------------------------------|
B|--------------------------------------------------------------------------|
G|------------------------------55--------55--------------------------------|
D|---------33---------33--------55--------55---------55---------55----------|
A|---------33---------33--3*-3*-33--3*-3*-33---------55---------55----------|
E|--1*-1*--11--1*-1*--11----------------------3*-3*--33--3*-3*--33----------|

e|------------|
B|------------|
G|-33---------|
D|-33--xx--3~-|
A|-11--xx--3~-|
E|-----xx--1~-|

 Little melody played in Intro:
|--------------------------------------------------|
|--------------------------------------------------|
|------------------------------5-5p3-----------3---|
|----------------------5^--3-----------5-3-5-------|
|-----------3-----3--------------------------------|
|-1---1-3-5----5-----------------------------------|

Chorus: Listen to song for changes etc...
|--------------------------------|
|--------------------------------|
|-5----------3-------------------|
|-5-----5----3----3--------------|
|-3-----5----1----3--------------|
|-------3---------1--------------|

Solo: Not 100% so improv some stuff where is doesn't sound right
|---------------------------------------6-------------3-3-3-3-3-3-3-3--|
|---------------------------------------6^----86-3-6--3-3-3-3-3-3-3-3--|
|-------3^--3h5p3-5^3-5--5-3-5-3---------------------------------------|
|-3-3-5----------------------------------------------------------------|
|----------------------------------------------------------------------|
|----------------------------------------------------------------------|


|-6-6--3----------3-------3------3-------6^-------6^----------3-------|
|-6-6--3--6---3h6--3---3h6----3h6----3-6----3-6------6--3-6------6----|
|---------6-----------------------------------------------------------|
|---------------------------------------------------------------------|
|---------------------------------------------------------------------|
|---------------------------------------------------------------------|


|---------------------------------------------------------------------|
|---------------------------------------------------------------------|
|-----3--5-3---------------------------3------3-----------------------|
|-3-5--------5--3-3-5----5^--3-----3h5---5^hb----(6)-3-6-5-3--5-5-3---|
|---------------------5---------5----------------------------------5--|
|---------------------------------------------------------------------|

Thanks,, cmmt and rate!!!
Tap to rate this tab
 
# A B C D E F G H I J K L M N O P Q R S T U V W X Y Z