Song name
# A B C D E F G H I J K L M N O P Q R S T U V W X Y Z

Social Distortion - Ring Of Fire tab

im taking this from the "Live at hte Roxy" album so its near perfect
If you have any questions e-mail me at gotcheese9455@yahoo.com
Intro
P.M.................
e---------------------------------------------------------------------------|
b---------------------------------------------------------------------------|
g---------------------------------------------------------------------------|
d-44444444444444444444444444444444------------------------------------------|
a-22222222222222222222222222222222------------------------------------------|
e---------------------------------------------------------------------------|
Solo
e--------------------------------------------------------------------------|
b--------------------------------------------------------------------------|
g---------------------------4-4--------------------------------------------|
d-4-4-4-4-4-4-4-4-4/6-2-2/4-4-4-4-4-4-4------------------------------------|
a--------------------------------------------------------------------------|
e--------------------------------------------------------------------------|

e---------------------------------------------------------------------------|
b---------------------------------------------------------------------------|
g---------------------------------------------------------------------------|
d-4-4-4-4-4-4---------------------------------------------------------------|
a-------------0-4/6-6-6-6-6-6-6-6-7-6-4-4/6-6--------6-0-0-6-6/13-0-0-------|
e---------------------------------------------------------------------------|
verse P.M................
e---------------------------------------------------------------------------|
b---------------------------------------------------------------------------|
g---------------------------------------------------------------------------|
d-4-4-4-4-4-4-4-4-4-4-4-4-2-2-2-2-------------------------------------------|
a-2-2-2-2-2-2-2-2-2-2-2-2-2-2-2-2-------------------------------------------|
e---------------------------------------------------------------------------|
p.m.............................................

e---------------------------------------------------------------------------|
b---------------------------------------------------------------------------|
g---------------------------------------------------------------------------|
d4-4-4-4-4-4-4-4-4-4-4-4-4-4-4-4-4-4-4-4-4-4-4-4----------------------------|
a2-2-2-2-2-2-2-2-2-2-2-2-2-2-2-2-2-2-2-2-2-2-2-2----------------------------|
e---------------------------------------------------------------------------|
P.M......       .................................
e-----------------------------------------------------------------------------|
b-----------------------------------------------------------------------------|
g-----------------------------------------------------------------------------|
d-4-4-4-4-------4-4-4-4-4-4-4-4-4-4-4-4-4-4-4-4-4-----------------------------|
a-2-2-2-2-4-4-4-2-2-2-2-2-2-2-2-2-2-2-2-2-2-2-2-2-----------------------------|
e---------2-2-2---------------------------------------------------------------|
Chorus
e------------------------------------------------------------------|
b------------------------------------------------------------------|
g------------------------------------------------------------------|x2
d-------------------------0-0-0-0-0-0-0-4-4-4-4-4-4----------------|
a-4-4-4-4-4-4-4-4-4-4-4-4-2-2-2-2-2-2-2-2-2-2-2-2-2----------------|
e-2-2-2-2-2-2-2-2-2-2-2-2-2-2-2-2-2-2-2----------------------------|
P.M....................................       ...........
e----------------------------------------------------------------------------|
b----------------------------------------------------------------------------|
g----------------------------------------0-0---------------------------------|
d4-4-4-4-4-4-4-4-4-4-4-4-4-4-4-4-4-4-4-4-2-2-4-4-4-4-4-4-4-------------------|
a2-2-2-2-2-2-2-2-2-2-2-2-2-2-2-2-2-2-2-2-2-2-2-2-2-2-2-2-2-------------------|
e----------------------------------------------------------------------------|

e------------------------------------------------------------------|
b------------------------------------------------------------------|
g------------------------------------------------------------------|
d4-4-4-4---------4-4-4-4-4-4-4-4-4-4-4-4-4-4-4-4-------------------|
a2-2-2-2-4-4-4-4-2-2-2-2-2-2-2-2-2-2-2-2-2-2-2-2-------------------|
e--------2-2-2-2---------------------------------------------------|

e----------------------------------------------------------------------|
b----------------------------------------------------------------------|
g----------------------------------------------------------------------|
d4-4-4-4-4-4-4-4-4-4-4-4-4-4-4-4---------------------------------------|
a2-2-2-2-2-2-2-2-2-2-2-2-2-2-2-2---------------------------------------|
e----------------------------------------------------------------------|
then back to solo
Tap to rate this tab
# A B C D E F G H I J K L M N O P Q R S T U V W X Y Z