Song name
# A B C D E F G H I J K L M N O P Q R S T U V W X Y Z

Social Distortion - The Creeps tab

Standard tuning or half-step down. Both sound basically the same.

Intro

e----------------|
B----------------|
G--3-3--3-3-3-6--|
D--3-3--3-3-3-6--|   4 Times
A--1-1--1-1-1-4--|
E----------------|

e-----------------------------------------------------------------|
B-----------------------------\/----------octaves----------\/-----|
G--3-3--3-3-3-3-6-6--6-6-6-6--10-10--10-10-8-6-3-3-3-3-3-3-3------|
D--3-3--3-3-3-3-6-6--6-6-6-6--------------------------------------| 2 Times
A--1-1--1-1-1-1-4-4--4-4-4-4---8--8---8--8-6-4-1-1-1-1-1-1-1------|
E-----------------------------------------------------------------|

Verse

e---------------|
B---------------|
G--8-8-8-6-8-6--|
D--8-8-8-6-8-6--|
A--8-8-8-4-6-4--|
E--6-6-6--------|

I'll be vigilant
I'll be silent
Yes, no one will know
Something for nothing
A toast on you're grave

Chorus

e--8-8-8--8-9--|
B--9-9-9--9-9--|
G--------------|
D--------------|
A--------------|
E--------------|

e----------------|
B----------------|
G--3-3--3-3-3-6--|
D--3-3--3-3-3-6--| 4 Times
A--1-1--1-1-1-4--|
E----------------|

e-------------------------------------------------------------|
B-------------------------------------------------------------|
G--3-3--3-3-3-3-6-6--6-6-6-6-10-10-10-10-8-6-3-3--3-3-3-3-----|
D--3-3--3-3-3-3-6-6--6-6-6-6----------------------------------| 2 Times
A--1-1--1-1-1-1-4-4--4-4-4-4-8--8--8--8--6-4-1-1--1-1-1-1-----|
E-------------------------------------------------------------|

I just wanna give you
The Creeps
The Creeps
The Creeps
The Creeps

2nd Verse

Run and hide
When I'm on the streets
Your fears and your tears
I'll taunt you in you're sleep

Chorus
I just wanna give you
The creeps
The creeps
The creeps
The creeps

Solo

e---------------------------------------6-6-6-6-8-9-9-9-8---|| -9p6------  ----|
B--6---6--6--6--6---6--6--6-------------------------------6-||:-----9p6-- :----|
G--8b--8b-8b-8b-8b--8b-8b-8b-8b-----------------------------|| ----------  ----|
D------------------------------6h8p6-4----------------------|| ----------  ----|
A-----------------------------------------------------------||:---------- :----|
E----------------------------------------------------------- || ----------  ---|

e-||--6-6--- ||--8---------|
B-||:-9-----:||--9---------|
G-||-------- ||---7b-7b-7b-|
D-||-------- ||------------|
A-||:--------||------------|
E-||---------||------------|

Chorus

Order:

Intro
Verse 1
Chorus
Verse 2
Chorus
Solo
Chorus

That's it
The solo might not be pinpoint accurate, and the chorus might not be perfect, but c'mon, 
do you expect from a 13 year old?
Tap to rate this tab
 
# A B C D E F G H I J K L M N O P Q R S T U V W X Y Z