Song name
# A B C D E F G H I J K L M N O P Q R S T U V W X Y Z

Social Distortion - Highway 101 tab

this song is tuned 1/2 step down with a capo on the 2nd fret
(all chords relative to capo)

Intro (guitar 2)

|---55--5--555-55----22--2--222-22---|
|---55--5--555-55----22--2--222-22---|
|--7b--7b-7b--7b----4b--4b-4b--4b----|
|------------------------------------|
|------------------------------------|
|------------------------------------|
(release bend each time)

Verse (guitar 1 during intro)

|------------------------------------|
|------------------------------------|
|------------------------------------|
|--7-77-77-77-------4-44-44-44-------|
|--7-77-77-77-------4-44-44-44-------|
|--5-55-55-55-000---2-22-22-22-000---|
(take a drive baby up the coast, yeah highway 101...)

Chorus

|------------------------------2-222-222-222---------------|
|--2-222-222-222---------------3-333-333-333---------------|
|--2-222-222-222-4-444-444-444-2-222-222-222-9-999-999-999-|
|--2-222-222-222-4-444-444-444---------------9-999-999-999-|
|----------------2-222-222-222---------------7-777-777-777-|
|----------------------------------------------------------|
(listen to the boulevard, listen to the falling rain...)

Solo (guitar 2)

|----------------------------------10-----------2---4-----6---8---9-|
|-----5--5h7p5-7----9----------------10-----------------------------|
|-----6-6-----6-6--9-9---99-9p7-7------9b-7~-1\2-2\4---4\6-6\8-8\9--|
|--\7-7-----------9---9--------9-7----------------------------------|
|----------------7--------------------------------------------------|
|-------------------------------------------------------------------|


Solo (continued)

|-----9-9-9-9----------7----9-9-9-10----10------------2----4---5----|
|-----------------------------------10----10-------------------5----|
|--7/9-9-9-9-9-99-9/7-7--7\9-9-9------9b----9b-7~~-1\2--2\4----6----|
|------------------------------------slow--fast----------------7----|
|------------------------------------bend--bend----------------7----|
|--------------------------------------------------------------5----|

The solo is not 100%, but this is pretty much how I do it, if you have any corrections 
let me know.

Thats it.....
Tap to rate this tab
# A B C D E F G H I J K L M N O P Q R S T U V W X Y Z