Social Distortion - Ring Of Fire tab

                                   Social Distortion
                                     Ring Of Fire
                     This Is My First Tab And I Hope Its Correct For Ya.
         Make sure you listen to the original recording for the strumming.

Tab Key
/= Slide Down The Neck
*= palm mute
(basically the whole song)


     Intro (X2) (Do Some Kind Of Pick Slide after the X(12).

    *
e---------------------------------------------------------------------------|
B---------------------------------------------------------------------------|
G---3-----------3---3---3---3---3---3---5---1---3---3---3---3---3---3-------|
D---3--X(12)----------------------------------------------------------------|
A---1------------------------------------------------------------------4/5--|
E---------------------------------------------------------------------------|


e---------------------------------------------------------------------------|
B---------------------------------------------------------------------------|
G---------------------------------------------------------------------------|
D---------------------------------------------------------------------------|
A---5---5---5---5---5---5---6--3---5---5---5---5---5---5--------------------|
E---------------------------------------------------------------------------|


Verse (Play This To Fit With The Words; its a constant downstroke, listen to the "Social 
album for the song "Ring Of Fire" to help you understand this tab  I am not perfect. 
is some things that don't sound the same as Social Distortion, sorry I'm not Mike Ness.

Love Is A Burnin' Thang

    *       *
e-------------------------------------|
B-------------------------------------|
G---3-------5-------------------------|
D---3-------5-------------------------|
A---1-------3-------------------------|
E-------------------------------------|

   And It Makes A Fiery Ring
    *          *         *
e----------------------------------------|
B----------------------------------------|
G---3--------------------3---------------|
D---3----------3---------3---------------|
A---1----------3---------1---------------|
E--------------1-------------------------|

   Bound By Wild Desire
    *       *      *
e-------------------------------------------------|
B-------------------------------------------------|
G---3-------5------3------------------------------|
D---3-------5------3------------------------------|
A---1-------3------1------------------------------|
E-------------------------------------------------|

   I Fell Into A Ring Of Fire
         *       *       *
e------------------------------------------------|
B------------------------------------------------|
G--------3---------------3-----------------------|
D--------3------3--------3-----------------------|
A--------1------3--------1-----------------------|
E---------------1--------------------------------|

(Chorus)

    I Fell In To A Burning Ring Of Fire


e--------------------------------------------------|
B--------------------------------------------------|
G---10-------------8---------------3---------------|
D---10-------------8---------------3---------------|
A---8--------------6---------------1---------------|
E--------------------------------------------------|


    I Went Down, Down, Down, And The Flames Went Higher


e--------------------------------------------------------|
B--------------------------------------------------------|
G---10-----------------------------8-----------3---------|
D---10-----------------------------8-----------3---------|
A----8-----------------------------6-----------1---------|
E--------------------------------------------------------|


   And It Burns, Burns, Burns, The Ring Of Fire, The Ring Of Fire.
   *                           *                 *     *
e--------------------------------------------------------------|
B--------------------------------------------------------------|
G--3---------------------------5-----------------------3-------|
D--3---------------------------5-----------------3-----3-------|
A--1---------------------------3-----------------3-----1-------|
E------------------------------------------------1-------------|

    The Taste Of A Love Is Sweet

    *                     *
e-----------------------------------------|
B-----------------------------------------|
G---3---------------------5---------------|
D---3---------------------5---------------|
A---1---------------------3---------------|
E-----------------------------------------|


   When Hearts Like Ours Meet.

   *           *      *
e----------------------------------------------|
B----------------------------------------------|
G--3-----------------3-------------------------|
D--3-----------3-----3-------------------------|
A--1-----------3-----1-------------------------|
E--------------1-------------------------------|

   I Fell For Ya Like A Child
   *              *     *

e---------------------------------------------|
B---------------------------------------------|
G--3--------------5-----3---------------------|
D--3--------------5-----3---------------------|
A--1--------------3-----1---------------------|
E---------------------------------------------|

  Oh But The Fire Went Wild

   *        *
e--------------------------------------------------|
B--------------------------------------------------|
G--3--------------3--------------------------------|
D--3--------3-----3--------------------------------|
A--1--------3-----1--------------------------------|
E-----------1--------------------------------------|

(Chorus)

    I Fell In To A Burning Ring Of Fire


e--------------------------------------------------|
B--------------------------------------------------|
G---10-------------8---------------3---------------|
D---10-------------8---------------3---------------|
A---8--------------6---------------1---------------|
E--------------------------------------------------|


    I Went Down, Down, Down, And The Flames Went Higher


e---------------------------------------------------------|
B---------------------------------------------------------|
G---10-----------------------------8-----------3----------|
D---10-----------------------------8-----------3----------|
A----8-----------------------------6-----------1----------|
E---------------------------------------------------------|


   And It Burns, Burns, Burns, The Ring Of Fire, The Ring Of Fire.
   *                           *                 *    *
e--------------------------------------------------------------|
B--------------------------------------------------------------|
G--3---------------------------5----------------------3--------|
D--3---------------------------5-----------------3----3--------|
A--1---------------------------3-----------------3----1--------|
E------------------------------------------------1-------------|


And Now The solo after Ness yells "Let It Burn!"


e-------------------------------------------------------------|
B-------------------------------------------------------------|
G-------------------------------------------------------------|
D--0---1---3---3---3---3---3---3--5--1--3--3---3---3---3--3---|
A-------------------------------------------------------------|
E-------------------------------------------------------------|

e----------------------------------------------------|
B----------------------------------------------------|
G----------------------------------------------------|
D----------------------------------------------------|
A---4/5---5---5---5---5---5---5---6---3---5---5---5--|
E----------------------------------------------------| then pick slide!!!


(Chorus)

    I Fell In To A Burning Ring Of Fire


e--------------------------------------------------|
B--------------------------------------------------|
G---10-------------8---------------3---------------|
D---10-------------8---------------3---------------|
A---8--------------6---------------1---------------|
E--------------------------------------------------|


    I Went Down, Down, Down, And The Flames Went Higher


e---------------------------------------------------------|
B---------------------------------------------------------|
G---10-----------------------------8-----------3----------|
D---10-----------------------------8-----------3----------|
A----8-----------------------------6-----------1----------|
E---------------------------------------------------------|


   And It Burns, Burns, Burns, The Ring Of Fire, The Ring Of Fire.
   *                           *                 *
e--------------------------------------------------------------|
B--------------------------------------------------------------|
G--3---------------------------5------------------------3------|
D--3---------------------------5-----------------3------3------|
A--1---------------------------3-----------------3------1------|
E------------------------------------------------1-------------|

 Outro (Where Mike Ness Yells "One More Time."

I Fell Into A Burning Ring Of Fire
I Went Down, Down, Down, And The Flames went higher
And It Burns, Burns, Burns,
The Ring Of Fire,
The Ring Of Fire.


I Fell In To A Burning Ring Of Fire


e--------------------------------------------------|
B--------------------------------------------------|
G---10-------------8---------------3---------------|
D---10-------------8---------------3---------------|
A---8--------------6---------------1---------------|
E--------------------------------------------------|


   I Went Down, Down, Down, And The Flames Went Higher


e---------------------------------------------------------|
B---------------------------------------------------------|
G---10-----------------------------8-----------3----------|
D---10-----------------------------8-----------3----------|
A----8-----------------------------6-----------1----------|
E---------------------------------------------------------|


   And It Burns, Burns, Burns, The Ring Of Fire, The Ring Of Fire
   *                           *                 *    *
e--------------------------------------------------------------|
B--------------------------------------------------------------|
G--3---------------------------5-----------------------3-------|
D--3---------------------------5-----------------3-----3-------|
A--1---------------------------3-----------------3-----1-------|
E------------------------------------------------1-------------|


e-------------------------------------------------------------|
B-------------------------------------------------------------|
G----------------------------------0--------------------------|
D---3----3----3---3---3---3---5----1--------------------------|
A-------------------------------------3/5---------------------|
E-------------------------------------------------------------|


I dunno its not bad. Just please let me know how the tab could be better either here On 
or at GenXJW@yahoo.com Thanks.
Tap to rate this tab
 
# A B C D E F G H I J K L M N O P Q R S T U V W X Y Z