Social Distortion - Indulgence tab

-----------------------------------------------------------------------------
			     Indulgence - Social Distortion
-----------------------------------------------------------------------------
Tabbed by: WarSage	
Email: Vinnybo721@yahoo.com

Tuning: EADGBE

Guitar 1: Intro:

e|---------------------------------------------------------------|
B|---------------------------------------------------------------|
G|-----2----2----2----2----0----0----0----0--0----0----0----0----|
D|---2----2----2----2----2----2----2----2------4----4----4----4--|
A|-0----0----0----0----3----3----3----3----------5----5----5----5|
E|---------------------------------------------------------------|

e|----------------------|
B|----------------------|
G|-----2----2-----2----2| Repeat 3x
D|---2----2-----2----2--|
A|-0----0-----0----0----|
E|----------------------|

e|------------------------------------------------------------------|
B|------------------------------------------------------------------|
G|-----2----2----2----2----0----0----0----0--0----0----0----0-------|
D|---2----2----2----2----2----2----2----2------4----4----4----4-----|Let 0
A|-0----0----0----0----3----3----3----3----------5----5----5----5-0-| ring. 
E|------------------------------------------------------------------|

Guitar 2 during Intro:

e|-----------------------------------------------------------------------|
B|-----------------------------------------------------------------------|
G|-----------------------------------------------------------------------|
D|------------------------------------5-5-5h7---7--7-7--7--5h757--7--7--7|
A|-------------------5-5-5h7--7--7-7-------------------------------------|
E|-3-3-3h5--5----5-------------------------------------------------------|

e|------------------------------------------------------------------------|
B|------------------------------------------------------------------------|
G|5-7-7-7/9~9~9~/14--5-7-7-7/9-7--5-----4h5p4444h5p4444h5p4444h5p444------|
D|-----------------------------------7------------------------------5-5h7-|
A|------------------------------------------------------------------------|
E|------------------------------------------------------------------------|

e|--------------------------------------------------------------------------|
B|--------------------------------------------------------------------------|
G|---------5-7-7-7/9~9~9~/14--5-7-7-7/9--7-5----4h5p4444h5p4444h5p4444h5p444|
D|-7---7--7----------------------------------7------------------------------|
A|--------------------------------------------------------------------------|
E|--------------------------------------------------------------------------|

e|--------------|
B|--------------|
G|--------------|Let 7 ring.
D|5--5/7--------|
A|--------------|
E|--------------|
Tap to rate this tab
 
# A B C D E F G H I J K L M N O P Q R S T U V W X Y Z