Social Distortion - Bad Luck tab

-------------------------------------------------------------------------------
			                            Bad Luck - Social Distortion
-------------------------------------------------------------------------------

Song: Bad Luck
Artist: Social Distortion
Tabbed by: Sergio Hirales
12/11/2010;sergiohirales@hotmail.com
Tuning: Half-Step Down (d#,A#,F#,C#,G#,D#)
Difficulty: Novice
FX: Overdriven Guitar

Intro:

d#|-2-----0-----2-|
A#|-2-----3-----3-|
F#|-0-----3-----2-|
C#|-0-----3-----0-|
G#|-2-----0-------|
D#|-3-------------|

d#|-----------------------|
A#|-----------------------|
F#|-----------------------|
C#|-----------------------| x4
G#|-7/9-7--5-5~----5-7-7~-|
D#|--------------7--------|


Verse 1:
    . .    . . .    . . .    . . .
d#|-----------------------------------|
A#|--------------3--------------------|
F#|-----0--------2--------3--------3--|
C#|-----0--0-0-0-0--------3--------3--| x4
G#|-----2-----------0-0-0-0--0-0-0-0--|
D#|-3-3-3-----------------------------|

d#|----------------------------------|
A#|----------------------------------|
F#|------------7-7-------------------|
C#|----5-5--7--7-7-----7-7-----7-7---| x4
G#|-5--5-5--5--5-5--7--7-7--7--7-7---|
D#|-3--3-3----------5--5-5--5--5-5---|


Chorus:

d#|----2-2-----2-2-----0-0-----0-0---|
A#|----2-2-----3-3-----3-3-----3-3---|
F#|-0--0-0--2--2-2--3--3-3--3--3-3---|
C#|-0--0-2--0--0-0--3--3-3--3--3-3---| x4
G#|-2--2-2----------0--0-0--0--0-0---|
D#|-3--3-3---------------------------|


Verse 2:
    . .    . . .    . . .    . . .
d#|-----------------------------------|
A#|--------------3--------------------|
F#|-----0--------2--------3--------3--|
C#|-----0--0-0-0-0--------3--------3--| x4
G#|-----2-----------0-0-0-0--0-0-0-0--|
D#|-3-3-3-----------------------------|

d#|----------------------------------|
A#|----------------------------------|
F#|------------7-7-------------------|
C#|----5-5--7--7-7-----7-7-----7-7---| x4
G#|-5--5-5--5--5-5--7--7-7--7--7-7---|
D#|-3--3-3----------5--5-5--5--5-5---|


Chorus:

d#|----2-2-----2-2-----0-0-----0-0---|
A#|----2-2-----3-3-----3-3-----3-3---|
F#|-0--0-0--2--2-2--3--3-3--3--3-3---|
C#|-0--0-2--0--0-0--3--3-3--3--3-3---| x4
G#|-2--2-2----------0--0-0--0--0-0---|
D#|-3--3-3---------------------------|


Solo:

d#|-----------------------|
A#|-----------------------|
F#|-----------------------|
C#|-----------------------| x4
G#|-7/9-7--5-5~----5-7-7~-|
D#|--------------7--------|

d#|-5-5-5-----5-5-----5-----5-------5----5-5--8-8-8-8-8-8-8-8--5-5--------------|
A#|-5-5-5-----5-5-----5-----5-------5----5-5--7-7-7-7-7-7-7-7--5-5--7-5--0-5-7--|
F#|-------b7------b7----b7----b7-b7---b7----------------------------7-5--0-5-7--|
C#|-----------------------------------------------------------------------------|
G#|-----------------------------------------------------------------------------|
D#|-----------------------------------------------------------------------------|

d#|---------------------------------------------------------|
A#|--5p4p3---3-5p4p3---3-5p4p3----7-5-7-5-5~--5~-5~--5~-5~--|
F#|--------5---------5---------5----------------------------|
C#|---------------------------------------------------------|
G#|---------------------------------------------------------|
D#|---------------------------------------------------------|

d#|----------------------5-5----5-5----5-5----5-5----5-----5-5---8-8-8-8-8-8-8-8--5-5------------|
A#|-----3-5p4p3---3---5--5-5----5-5----5-5----5-5----5-----5-5---7-7-7-7-7-7-7-7--5-5-7-5-0-5-7--|
F#|-3-5---------5-----b7-----b7-----b7-----b7-----b7----b7----------------------------7-5-0-5-7--|
C#|----------------------------------------------------------------------------------------------|
G#|----------------------------------------------------------------------------------------------|
D#|----------------------------------------------------------------------------------------------|

d#|----------------------------------------|
A#|--5p4p3---3-5p4p3---3-5p4p3----7-5-7-5--|
F#|--------5---------5---------5-----------|
C#|----------------------------------------|
G#|----------------------------------------|
D#|----------------------------------------|


And the rest of the song is the same ;)


|===========================================================================|

| /  Slide up
| \  Slide down
| b  Bend chord
| h  Hammer-on
| p  Pull-off
| ~  Vibrato
| +  Harmonic
| .  Palm-mute

|===========================================================================|
Tap to rate this tab
 
# A B C D E F G H I J K L M N O P Q R S T U V W X Y Z