Social Distortion - Footprints On My Ceiling tab

-------------------------------------------------------------------------------
			     Footprints On My Ceiling - Social Distortion
------------------------------------------------------------------------------
Tabbed by:RootsRockRebel
I'm tabbing this little intro piece because everything out there is so incredibly wrong. 
ALL, and I mean ALL SD songs are tuned down 1/2 step and most use a capo to play open 
chords easier. You don't need the capo, it just makes it easier. This is also my first tab.

Tuning:1/2 step flat w/ capo on 2nd fret.

e|--------------------------------------------------------------------------|
B|----------------------------------------------7-------------7-------------|
G|-----------------------------------------6/8-----8p6--------6-------------|
D|-----------------------------6b-6br--4---------------6-6h8--8-------------|
A|-----------------4--6--4---4----------------------------------------------|
E|---2---2--4--6------------------------------------------------------------|


************************************
Tap to rate this tab
 
# A B C D E F G H I J K L M N O P Q R S T U V W X Y Z