Social Distortion - Dont Take Me For Granted tab

dont take me for granted solo by social distortion
This is my first tab, not sure if its right but its as close as I could get
this part begins after the palm mute at the end of the second chorus.
Any corrections, message me! Happy playing
Tabbed by Timmeh22

key
h = hammer
p = pull 
/ = slide up
\ = slide down
~ = let ring

e-------------------------------------------------------------------------|
B-----6-------6--------6--------6-6/8-8-8-8-8-8-8-8-8-8-8-8/10-10-10\8-8--|
G-5h7-----5h7-----5h7-----5h7---------------------------------------------|
D-------------------------------------------------------------------------|
A-------------------------------------------------------------------------|
E-------------------------------------------------------------------------|

e------------------------------------------------------------|
B-----6------6------6------6---------------------------------|
G-5h7----5h7----5h7----5h7--5---2h3p2---3p2-----5-5----------|
D-------------------------------------------3/5--------------|
A------------------------------------------------------------|
E------------------------------------------------------------|

e----------------------------------------------------------|
B-6-6-6-6-6-6-6-6-5-6-8-6-5-5-5-5-5-5-5-5--5-6-5-------6---|
G------------------------------------------------7-5h7---5-|
D----------------------------------------------------------|
A----------------------------------------------------------|
E----------------------------------------------------------|

e------------------------------------------------------------------------|
B-6-6-6-6-6-6-6-6-5-5-5-5-5-5-5-5-6-6-6-6-6-6-6-6-6-6-6-6-6-6-6-5-6-8-6-5|
G------------------------------------------------------------------------|
D------------------------------------------------------------------------|
A------------------------------------------------------------------------|
E------------------------------------------------------------------------|

e------------------------------------------------------------|
B---------6-----------6-6-6-6-6-6-6-6-5-5-5-5-5-5-5-5--6~8~9~|
G-5-5-5h7---5-5-5-5-5----------------------------------------|
D------------------------------------------------------------|
A------------------------------------------------------------|
E------------------------------------------------------------|
Tap to rate this tab
 
# A B C D E F G H I J K L M N O P Q R S T U V W X Y Z