Social Distortion - Road Zombie tab

                               Road Zombie

                         by: Social Distortion

 **Capo 1st Fret**

guitar 1

   Em                  G    F

E--------------------------------|
B--------------------------------|
G--------------------------------|
D--2----2--2--22--2--2-5-5--3-3--|
A--2----2--2--22--2--2-5-5--3-3--|
E--0----0--0--00--0--0-3-3--1-1--|


guitar 2


E-----------------------0--|
B-----------------------0--|
G-----------------------0--|
D--2----2-0----------------|
A-----------2-0---2--------|
E-------------------0------|


E-------------------------|
B-------------------------|
G--2/4-----2-0---0---2/4--|
D--------------4----------|
A-------------------------|
E-------------------------|


E---------------------------|
B--/5-----3-----------------|
G-----------5-4h5-4--2-2/4--|
D---------------------------|
A---------------------------|
E---------------------------|


E------------------------------|
B------------------------------|
G--2/4-----2-0---0-------------|
D--------------4---4b-r(4)--2--|
A------------------------------|
E------------------------------|

 Chorus

*play this part 4x

E---7------7------7-----7--8-8-8-8--|
B-----8-5----8-5----8-5----8-8-8-8--|
G-----------------------------------|
D-----------------------------------|
A-----------------------------------|
E-----------------------------------|


E---7-----5-3-2-3-2--0--0h2--|
B----------------------------|
G----------------------------|
D----------------------------|
A----------------------------|
E----------------------------|


E---7-----5-3-2-3-2/7---7--|
B--------------------------|
G--------------------------|
D--------------------------|
A--------------------------|
E--------------------------|


E---------------------------|
B--/5-----3-----------------|
G-----------5-4h5-4--2-2/4--|
D---------------------------|
A---------------------------|
E---------------------------|


E-----------------------------|
B-----------------------------|
G--2/4----2-0---0-------------|
D-------------4---4b--r(4)-2--|
A-----------------------------|
E-----------------------------|


play this part 3x

E--*7-----*7-----*7----|
B-----*7-----*7----*7--|
G----------------------|
D----------------------|
A----------------------|
E----------------------|


E----------------------|
B--/5------------------|
G----------------------|
D----------------------|
A----------------------|
E----------------------|
Tap to rate this tab
 
# A B C D E F G H I J K L M N O P Q R S T U V W X Y Z