Song name
# A B C D E F G H I J K L M N O P Q R S T U V W X Y Z

Social Distortion - Gotta Know The Rules tab

Part 1 (4 times):
e|-----1-----1----1--------------------------------------------------|
B|-1-3---1-3--1-3---1-3-1--------------------------------------------|
G|-------------------------------------------------------------------|
D|-------------------------------------------------------------------|
A|-------------------------------------------------------------------|
E|-------------------------------------------------------------------|

Part 2 (2 times):
e|-3---3-5-6-6-3---1-3-3-1----------------------------|
B|-------------------------3---1-3-3-1----------------|
G|----------------------------------------------------|
D|----------------------------------------------------|
A|----------------------------------------------------|
E|----------------------------------------------------|

Part 3 (3 times):
e|-----1-----1----1--------------------------------------------------|
B|-1-3---1-3--1-3---1-3-1--------------------------------------------|
G|-------------------------------------------------------------------|
D|-------------------------------------------------------------------|
A|-------------------------------------------------------------------|
E|-------------------------------------------------------------------|

End with this
e|-1---------------------------------------------------|
B|-----------------------------------------------------|
G|-----------------------------------------------------|
D|-----------------------------------------------------|
A|-----------------------------------------------------|
E|-----------------------------------------------------|
Tap to rate this tab
 
# A B C D E F G H I J K L M N O P Q R S T U V W X Y Z