Song name
# A B C D E F G H I J K L M N O P Q R S T U V W X Y Z

Social Distortion - The Creeps tab

Intro Rhythm

eb|----------------------------------------------------------|
Bb|----------------------------------------------------------|
Gb|--4-4--4-4-4-7--4-4--4-4-4-7--4-4--4-4-4-7--4-4--4-4-4-7--|
Db|--4-4--4-4-4-7--4-4--4-4-4-7--4-4--4-4-4-7--4-4--4-4-4-7--|
Ab|--2-2--2-2-2-5--2-2--2-2-2-5--2-2--2-2-2-5--2-2--2-2-2-5--|
Eb|----------------------------------------------------------|

Intro Octave Solo

eb|----------------------------------------------------------------------------------|
Bb|----------------------------------------------------------------------------------|
Gb|-4-4---4-4--4-4-4-4--7-7---7-7--7-7-7-7--11-11--11--11--9--7--4-4---4-4-4-4-4-4---|
Db|----------------------------------------------------------------------------------|
Ab|-2-2---2-2--2-2-2-2--5-5---5-5--5-5-5-5--9-9--9--9--7--5--2-2--2-2-2-2-2-2--------|
Eb|----------------------------------------------------------------------------------|

^^^ Sorry about the spacing on this part, just know that they're all octaves, so it's all the same

Verse

eb|------------------------------||
Bb|------------------------------||
Gb|--4-4--4-4-4-7--4-4--4-4-4-7--||
Db|--4-4--4-4-4-7--4-4--4-4-4-7--||  2x
Ab|--2-2--2-2-2-5--2-2--2-2-2-5--||
Eb|------------------------------||

eb|--5----9--9--9--9-10-9-----|
Bb|--5---10-10-10-10-10-10----|
Gb|--6------------------------|
Db|--7------------------------|
Ab|--7------------------------|
Eb|--5------------------------|

1st Verse

I'll be vigilant, I'll be silent
Yes, no one will know
Something for nothing
A toast on your grave

I just wanna give you


2nd Verse

Run and hide
When I'm on the street
Your fears and your tears
I'll taunt you in your sleep

I just wanna give you

Chorus

eb|--------------------------||
Bb|--------------------------||
Gb|--4-4--4-7-9--4-4--4-7-9--||
Db|--4-4--4-7-9--4-4--4-7-9--||  2x
Ab|--2-2--2-5-7--2-2--2-5-7--||
Eb|--------------------------||

Chorus

The Creeps
The Creeps
The Creeps
You Creeps

Solo

eb|------------------------------------------------------------|
Bb|--7----7---7---7---7----7---7---7---7-----------------------|
Gb|--9b---9b--9b--9b--9b---9b--9b--9b--9br--9br--7---------7---|
Db|------------------------------------------------9--7h9------|
Ab|------------------------------------------------------------|
Eb|------------------------------------------------------------|


eb|--7-7-7--7-9--9-10-9---7-7--9p7-----9p7-----9p7-----9p7-----9p7------|
Bb|---------------------9----------9p7-----9p7-----9p7-----9p7-----9p7--|
Gb|---------------------------------------------------------------------|
Db|---------------------------------------------------------------------|
Ab|---------------------------------------------------------------------|
Eb|---------------------------------------------------------------------|

eb|--9p7-----9p7------9p7--------7-7---7-7---7-7----7-|
Bb|------9p7-----9p7-----9p7---9-----9-----9-----9----|
Gb|---------------------------------------------------|
Db|---------------------------------------------------|
Ab|---------------------------------------------------|
Eb|---------------------------------------------------|

eb|-----7-7--7-7---7-7---7------7-7---7-7---7-7---7-7--7-|
Bb|-----7-7--7-7---7-7---7------7-7---7-7---7-7---7-7--7-|
Gb|--9b----9b----9b----9b-----9b----9b----9b----9b-------|
Db|------------------------------------------------------|
Ab|------------------------------------------------------|
Eb|------------------------------------------------------|

eb|--9--10--9---------------|
Bb|--10-10--10--5---5---5---|
Gb|-------------7b--7b--7b--|
Db|-------------------------|
Ab|-------------------------|
Eb|-------------------------|



Order:

Intro
Verse
Chorus
Intro Solo
Verse
Chorus
Solo
Chorus
Tap to rate this tab
 
# A B C D E F G H I J K L M N O P Q R S T U V W X Y Z