Social Distortion - When She Begins tab

-------------------------------------------------------------------------------
			     When She Begins - Social Distortion
-------------------------------------------------------------------------------
Tabbed by:legnadetrotsid


Tuning: Tune down half a step.

This is the way I play it and it sounds good to me although I don't know if it's correct.
Since I don't know how to tab out the strumming pattern I just tabbed out the chords I use.
It's not 100% accurate. I left out some hammer-ons and pull-offs and other little strums I do
during the solo because I can't exactly tab out notes. I just put the basic 
pattern. But once you get 
the rhythm and feel for this you can add your own shuffle. 


 
 



               
e|---------|---------|---------|---------|
B|---------|---------|---------|---------|
G|---------|----9----|-7-------|---------|
D|----7----|----9----|-7--10-10|----7----|
A|----7----|----7----|-5--10-10|----7----|
E|----5----|----7----|(5)-8--8-|----5----|



First intro solo repeat 1 time
e|---|----------------------------|---------------------|----------------------|------------------|
B|---|-10-----10-10-10------------|-------------------10|-10-----10-10-10------|------------------|
G|-9-|-9h11---9--11-9----9----9---|----9---9----9-9---9-|-9h11---9--11-9---9-9-|-9----9--9--9---9-|
D|---|-------------------9h11-11--|-11-9---9h11-9-9-----|------------------9-9-|-9h11-11-11-11----|
A|---|----------------------------|---------------------|----------------------|------------------|
E|---|----------------------------|---------------------|----------------------|------------------|



Solo    Repeat 1 time
e|---|----------------------|----------------------|---------------------------|------------------|
B|---|----------------------|-------------10----10-|10----10-10-10-------------|------------------|
G|---|---------------9--+11-|-11-11--9h11-11----9--|11----9--11-9-----9-9-9----|-9--9----9--------|
D|-9-|-9h11--11--11---------|----------------------|------------------9-9-9h11-|-11-11---11-----9-|
A|---|----------------------|----------------------|---------------------------|------------------|
E|---|----------------------|----------------------|---------------------------|------------------|



Repeat 1 time                                                              first time only[-------]
e|-12-|----12--------12-----|12----12-12-1212-12-12|10--10-10--10--------------|------------12----|
B|-12b|(14)-----(14)--------|14br1212-12-1212-12-12|10--10-10--10---10-10---10-|10--10--10-----12b|
G|----|---------------------|----------------------|----------------9--9h11-11-|9---9---9---------|
D|----|---------------------|----------------------|---------------------------|------------------|
A|----|---------------------|----------------------|---------------------------|------------------|
E|----|---------------------|----------------------|---------------------------|------------------|




************************************

| /   slide up
| \   slide down
| h   hammer-on
| p   pull-off
| ~   vibrato
| +   harmonic
| x   Mute note
| b   Bend
| pb  Pre-bend
| br  Bend release
| pbr Pre-bend release
| brb Bend release bend

************************************
Tap to rate this tab
 
# A B C D E F G H I J K L M N O P Q R S T U V W X Y Z