Song name
# A B C D E F G H I J K L M N O P Q R S T U V W X Y Z

Social Distortion - Crown Of Thorns tab

-------------------------------------------------------------------------------
			     Crown of Thorns - Social Distortion
-------------------------------------------------------------------------------
Tabbed by:legnadetrotsid	

Tuning:Half a step down



Intro

  Bm                                A
                        
e|--------|-2-2--2--2---2----------|----------------------|
B|--------|-3-3--3--2h3-3----2-----|-2-2--2--2--2---------|
G|-----2--|-4-4--4--4---4--4---4-2-|-2-2--2--2--2---------|
D|-2-4---4|-4-4--4--4---4----------|-2-2--2--2--2---------|
A|--------|-2-2--2--2---2----------|-0-0--0--0--0-----0---|
E|--------|------------------------|--------------0-2---2-|
                                                                            
  

  Bm                       A
e|-2-2--2--2---2----------|-----------------------|
B|-3-3--3--2h3-3----------|-2-2--2--2--2----------|
G|-4-4--4--4---4----------|-2-2--2--2--2----------|
D|-4-4--4--4---4----------|-2-2--2--2--2----------|
A|-2-2--2--2---2--2-4-2-0-|-0-0--0--0--0------0---|
E|------------------------|---------------0-2---2-|
 

            Bm                                          A                        
 First solo|repeat-------------------------------------------------------------------
e|-14-14-14|14\12--12-12--14-14-14-12--14-14-14-12--10-|10/12-12--10-9--9----14141414|
B|-15-15-15|15\14--14-14--15-15-15-14--15-15-15-14--12-|12/14-14--12-10-10---15151515|
G|---------|-------------------------------------------|-----------------------------|
D|---------|-------------------------------------------|-----------------------------|
A|---------|-------------------------------------------|-----------------------------|
E|---------|-------------------------------------------|-----------------------------|



                    Bm                     A
1.)Pretty much been alone now for almost five years
   2.)Got a bad reputation for playing with love

               Bm                              A
 I could always find a way to hide these bitter tears, Still Ive been...
     Gonna play again now,    and beat the odds above and still I've been...


 Bm                                F# 

 ...waiting   and    wishing      somehow            I wish I knew...
 
e|-2-2-2-2-2-2-2-2-2-2-2-2-2-2-2-2|--------------------------------|
B|-3-3-3-3-3-3-3-3-3-3-3-3-3-3-3-3|--------------------------------|
G|-4-4-4-4-4-4-4-4-4-4-4-4-4-4-4-4|--------------------------------|
D|-4-4-4-4-4-4-4-4-4-4-4-4-4-4-4-4|-4-4-4-4-4-4-4-4-4-4-4-4-4-4-4-4|
A|-2-2-2-2-2-2-2-2-2-2-2-2-2-2-2-2|-4-4-4-4-4-4-4-4-4-4-4-4-4-4-4-4|
E|--------------------------------|-2-2-2-2-2-2-2-2-2-2-2-2-2-2-2-2|



    Bm              A                    Bm                A
 ...then  What I know now It's no bed of roses it ain't no crown of thorns
                 Bm
    Better than lonely I've been there..



 F#            E           
 
  ...before    (second time play F#)             
e|------------|----------------------|
B|------------|----------------------|
G|------------|----------------------|
D|-4--4--4--4-|--2-------------------|
A|-4--4--4--4-|--2-------------------|
E|-2--2--2--2-|--0-------------------|



 second little solo
e|----------------------------------------------------------------------------------------|
B|----------------------------------------------------------------------------------------|
G|-6h7----7p6---6-6h7----7p6---6-7/9-9--7p6---6-7-6---------------------------------------|
D|------------9--------------9--------------9--------------7-9-+9b11-9----9p7----7--7-----|
A|-----------------------------------------------------7-9--------------------9-----7-----|
E|----------------------------------------------------------------------------------------|



Bridge

  C                G                D5/A

          Are you  tired         of being            alone
      Or have you  fallen    out    of      love
       Do   you    care   enough   about        yourself
           I have  worn your crown  of        thorns
e|----------------|----------------|----------------|----------------|
B|----------------|----------------|----------------|----------------|
G|-5-5-5-5-5-5-5-5|----------------|-7-7-7-7-7-7-7-7|-7-7-7-7-7-7-7-7|
D|-5-5-5-5-5-5-5-5|-5-5-5-5-5-5-5-5|-7-7-7-7-7-7-7-7|-7-7-7-7-7-7-7-7|
A|-3-3-3-3-3-3-3-3|-5-5-5-5-5-5-5-5|-5-5-5-5-5-5-5-5|-5-5-5-5-5-5-5-5|
E|----------------|-3-3-3-3-3-3-3-3|-5-5-5-5-5-5-5-5|-5-5-5-5-5-5-5-5|




 Solo
                                                                  repeat 1x
e|-141414141414-1212121212-1414141414-1212121212-10/12-12121212-10-9--9-9--|
B|-151515151515-1414141414-1515151515-1414141414-12/14-14141414-12-10-1010-|
G|-------------------------------------------------------------------------|
D|-------------------------------------------------------------------------|
A|-------------------------------------------------------------------------|
E|-------------------------------------------------------------------------|

                                               repeat 1x
e|------------------------------------------------------|
B|------------------------------------------------------|
G|-9/11-9-11~11~1111~11-1111-9--7-9-9---7-6-------------|
D|------------------------------------------9-7-7-7-7-7-|
A|------------------------------------------------------|
E|------------------------------------------------------|



e|-----------------------------------------------------------------------------------------|
B|-----------------------------------------------------------------------------------------|
G|-------7--7--7-7---7-7-----------6--6----6-6---6-6---------------------------------------|
D|-9-7-9-9--9--9-9---9-9--9/11-9\7-7--7--7-7-7---7-7---------------------------------------|
A|----------------------------------------------------7/9--7-9--9-9-9-9-9-7------7777777/\-|
E|----------------------------------------------------------------------------10-----------|



  Bm                A  
                      repeat til end
e|-----------------|----------------|
B|-3-3-3-3-3-3-3-3-|----------------|
G|-4-4-4-4-4-4-4-4-|-2-2-2-2-2-2-2-2|
D|-4-4-4-4-4-4-4-4-|-2-2-2-2-2-2-2-2|
A|-2-2-2-2-2-2-2-2-|-0-0-0-0-0-0-0-0|
E|-----------------|----------------|



 Ending
  F#5       E         Bm

  ..before
e|---------|---------|----------------2--|
B|---------|---------|----------------3--|
G|---------|---------|--------2-------4--|
D|----4----|----2----|--2--4-----4----4--|
A|----4----|----2----|----------------2--|
E|----2----|----0----|-------------------|



************************************

| /   slide up
| \   slide down
| h   hammer-on
| p   pull-off
| ~   vibrato
| +   harmonic
| x   Mute note
| b   Bend
| pb  Pre-bend
| br  Bend release
| pbr Pre-bend release
| brb Bend release bend

************************************
Tap to rate this tab
# A B C D E F G H I J K L M N O P Q R S T U V W X Y Z