Song name
# A B C D E F G H I J K L M N O P Q R S T U V W X Y Z

Social Distortion - Bakersfield tab

-------------------------------------------------------------------------------
                            Bakersfield - Social Distortion
-------------------------------------------------------------------------------
Tabbed by: william iskandar
Email: thepeopleorthegun@yahoo.com

Tuning:Half Step Down

First solo
eb|---------------------------------------------------------------------------|
Bb|---------------------------------------------------------------------------|
Gb|------9------9----9h11~--9--9--11~-9--9------------------------------------|
Db|9/11---11------11-----------------------12\11/12--12-11-9-7-9/11--11\9~----|
Ab|---------------------------------------------------------------------------|
Eb|---------------------------------------------------------------------------|
       *1   *2  *3                    
eb|---------------------------------------------------------------------------|
Bb|---/14--/14--12----------------------1717---------17-----------------------|
Gb|---/14--/14--13---13/14-14/16-16/18--1816---16h18---18-18-16-18-16---------|
Db|---------------------------------------------------------------------------|
Ab|---------------------------------------------------------------------------|
Eb|---------------------------------------------------------------------------|

eb|---------------------------------------------------------------------------|
Bb|-----------------------------------------17--------------------------------|
Gb|-16-14--14h16r14-14----14-14--14-16-16b18---18br16-14-16-18----------------|
Db|------16--------------------16---------------------------------------------|
Ab|---------------------------------------------------------------------------|
Eb|---------------------------------------------------------------------------|
  The second solo AFTER "....On that big ol' California king sized bed"
eb|--------------------------------------------------------------------------------------|
Bb|--------------------------------------------------------------1717-19-----------------|
Gb|-----9-------9----9h11--9-9--11-9-9-9/11-11/14--14/16---16/18----------16-18-16----14-|
Db|9/11---11------11---------------------------------------------------------------------|
Ab|--------------------------------------------------------------------------------------|
Eb|--------------------------------------------------------------------------------------|

*1= 4 times
*2= 10 times
*3= 5 times

thanks
enjoy
Tap to rate this tab
# A B C D E F G H I J K L M N O P Q R S T U V W X Y Z